Tablature guitare : Ed Sheeran – Autumn Leaves

Author
Difficulty
Capo
intermediate
3rd fret
First tab!
Standard tuning, capo on the 3rd fret
It's very late and I'm tired, so forgive me if there are any mistakes.
Enjoy!



[Intro]

e|-------------||-------------||-------------||-------------|
B|------3------||------3------||------0------||---3-----0---|
G|---0-----0---||---2-----0---||---------0---||---0-----0---|
D|-------------||-------------||---0---------||-------------|
A|-------------||-------------||-------------||3------3-----|
E|0------------||2------------||3------------||-------------|


[Verse]

e|-------------||-------------||-------------||-------------|
B|------3------||------3------||------0------||---3-----0---|
G|---0-----0---||---2-----0---||---------0---||---0-----0---|
D|-------------||-------------||---0---------||-------------|
A|-------------||-------------||-------------||3------3-----|
E|0------------||2------------||3------------||-------------| X4


[Pre-Chorus]

e|-------------||-------------||-------------|
B|------1------||------1------||3------------|
G|------0------||------0------||2------------|
D|---2-----2---||---2-----2---||0------------|
A|3------------||3------------||-------------|
E|-------------||-------------||-------------|


[Chorus]

e|-------------||-------------||-------------||-------------|
B|------3------||------3------||------0------||---------0---|
G|------0------||------2--0---||------0------||------2--0---|
D|---0-----0---||---0---------||---2-----2---||---2--2------|
A|-------------||-------------||-------------||3------------|
E|3------------||2------------||0------------||-------------| X4


[Interlude]

e|-------------||-------------||-------------||-------------|
B|------3------||------3------||------0------||---3-----0---|
G|---0-----0---||---2-----0---||---------0---||---0-----0---|
D|-------------||-------------||---0---------||-------------|
A|-------------||-------------||-------------||3------3-----|
E|0------------||2------------||3------------||-------------|


[Verse]

e|-------------||-------------||-------------||-------------|
B|------3------||------3------||------0------||---3-----0---|
G|---0-----0---||---2-----0---||---------0---||---0-----0---|
D|-------------||-------------||---0---------||-------------|
A|-------------||-------------||-------------||3------3-----|
E|0------------||2------------||3------------||-------------| X4


[Pre-Chorus]

e|-------------||-------------||-------------|
B|------1------||------1------||3------------|
G|------0------||------0------||2------------|
D|---2-----2---||---2-----2---||0------------|
A|3------------||3------------||-------------|
E|-------------||-------------||-------------|


[Chorus]

e|-------------||-------------||-------------||-------------|
B|------3------||------3------||------0------||---------0---|
G|------0------||------2--0---||------0------||------2--0---|
D|---0-----0---||---0---------||---2-----2---||---2--2------|
A|-------------||-------------||-------------||3------------|
E|3------------||2------------||0------------||-------------| X4


[Bridge]
 
e|-------------||-------------||------3------||-------------|
B|-------0-----||-------3-----||--------3-3--||------3------|
G|----0----0-0-||----0----0-0-||---0-----0---||---2----2-2--|
D|--2---0---0--||--2--2----2--||--0-0--------||--0-0----0---|
A|0------------||3------------||-------------||0------------|
E|-------------||-------------||3------------||-------------| X2


[Pre-Chorus]

e|-------------||-------------||-------------|
B|------1------||------1------||3------------|
G|------0------||------0------||2------------|
D|---2-----2---||---2-----2---||0------------|
A|3------------||3------------||-------------|
E|-------------||-------------||-------------|


[Chorus]

e|-------------||-------------||-------------||-------------|
B|------3------||------3------||------0------||---------0---|
G|------0------||------2--0---||------0------||------2--0---|
D|---0-----0---||---0---------||---2-----2---||---2--2------|
A|-------------||-------------||-------------||3------------|
E|3------------||2------------||0------------||-------------| X8


[Ending Chorus]

e|-------------||-------------||-------------||-------------|
B|------3------||------3------||------0------||---3-----0---|
G|---0-----0---||---2-----0---||---------0---||---0-----0---|
D|-------------||-------------||---0---------||-------------|
A|-------------||-------------||-------------||3------3-----|
E|0------------||2------------||3------------||-------------| X2

e|-------------||-------------||-------------||-------------|
B|------3------||-------------||-------------||-----------0-|
G|---------0---||------2------||------0------||-----2-----0-|
D|---0---------||---0-----0---||---0-----0---||---2-2-------|
A|-------------||-------------||-------------||3------------|
E|3------------||2------------||0------------||-------------|


e|-------------||-------------||-------------||-------------|
B|------3------||-------------||-------------||----------0--|
G|---------0---||------2------||------0------||------0------|
D|---0---------||---0-----0---||---0-----0---||---2-----0---|
A|-------------||-------------||-------------||0------------|
E|3------------||2------------||0------------||-------------|

https://tabs.ultimate-guitar.com/e/ed_sheeran/autumn_leaves_ver3_tab.htm