Tablature guitare : Cat Stevens – Moonshadow

Moonshadow chords
Cat Stevens *

D G D  G A7 D

    D                       G   D       G           A7  D
Oh, I'm bein' followed by a moonshadow, moonshadow, moonshadow
                        G   D       G           A7  D
Leapin and hoppin' on a moonshadow, moonshadow, moonshadow

    G    D    G       D      G       D       Em      A
And if I ever lose my hands, lose my plough, lose my land
    G    D    G       D          Em A  D Bm   Em              A       D
Oh, if I ever lose my hands, Oh, if....       I won't have to work no more.
    G    D    G       D     G     D      Em      A
And if I ever lose my eyes, if my colors all run dry,
     G    D    G       D         Em A  D Bm   Em              A      D
Yes, if I ever lose my eyes, Oh, if....       I won't have to cry no more.

    D                       G   D       G           A7  D
Oh, I'm bein' followed by a moonshadow, moonshadow, moonshadow
                        G   D       G           A7  D
Leapin and hoppin' on a moonshadow, moonshadow, moonshadow

    G    D    G       D     G       D         Em      A
And if I ever lose my legs, I won't moan, and I won't beg
     G    D    G       D         Em A  D Bm   Em              A       D
Yes, if I ever lose my legs, Oh, if....       I won't have to walk no more.
    G    D    G       D      G      D      Em        A
And if I ever lose my mouth, all my teeth, north and south
     G    D    G       D          Em A  D Bm  Em              A        D
Yes, if I ever lose my mouth, Oh, if....      I won't have to talk...

D G D  G A7 D  2x

E                   A        E                    A
Did it take long to find me? I asked the faithful light.
E                   A            E                      A
Did it take long to find me? And are you gonna stay the night?

D                       G   D       G           A7  D
I'm bein' followed by a moonshadow, moonshadow, moonshadow
                        G   D       G           A7  D
Leapin and hoppin' on a moonshadow, moonshadow, moonshadow

G   A           D
Moonshadow, moonshadow
G   A7          D
Moonshadow, moonshadow

* Alternate:

Capo II

D  = C
G  = F
A7 = G7
Em = Dm
A  = G
Bm = Am

Commentaire :

Here's the intro:

e|-5-----5--5--------3h-2-|-3-----------2-------|
B|-3-----3--3-------------|----------------3----|
G|----2-----------2-------|----2-----2----------|
D|-0-----0-----0-----0----|-0-----0-----0-------|
A|------------------------|---------------------| 
E|------------------------|-------------------2-|

e|-------3----------------|-2-----0h-2----------|
B|-------0----------------|-------------3-------|
G|----0-----0-----0-----0-|----2----------------|
D|------------------------|-0-----0-----0---(0)-|
A|-------------2-----0----|---------------------| 
E|-3----------------------|---------------------|

https://tabs.ultimate-guitar.com/c/cat_stevens/moonshadow_ver5_crd.htm