Tablature guitare : Bob Dylan – Don’t Think Twice Its All Right

Don't Think Twice, It's Alright
Bob Dylan
The Freewheelin' Bob Dylan
1963

Standard tuning
Capo on 4th fret

This is tabbed from G0liath1012's way of playing the song.
Video (part 1): http://www.youtube.com/watch?v=W2RdIH8A3yc&feature=related
Video (part 2): http://www.youtube.com/watch?v=tyCPNMG70js&feature=fvwrel


[Intro]

 C                 G                 Am       C/G      F
e|-----------------|-------0h1-------|-----------------|-----------------|
B|---------------1-|---------------1-|-------1-------1-|-------1-------1-|
G|-----------0-----|---0-------0-----|---2-------2-----|---2-------2-----|
D|-----2-------2---|-----0-------0---|-----2-------2---|-----3-------3---|
A|-3---------------|-----------------|-0---------------|-----------------|
E|---------3-------|-3-------3-------|---------3-------|-1-------0-------|

 C                 G                 C
e|-----------------|-------0h1-------|-----------------|-----------------|
B|-------1-------1-|---------------1-|---------------1-|---------------1-|
G|---0-------0-----|---0-------0-----|-----------0-----|-----------0-----|
D|-----2-------2---|-----0-------0---|-----2-------2---|-----2--------2--|
A|-----------------|-----------------|-3---------------|-3---------------|
E|-3-------3-------|-3-------3-------|---------3-------|----------3------|


[Verse]

 C                 G                 Am                C/G
e|-----------------|-------0h1-------|-----------------|-----------------|
B|---------------1-|---------------1-|---------------1-|---------------1-|
G|-----------0-----|---0-------0-----|-----------2-----|-----------2-----|
D|-----2-------2---|-----0-------0---|-----2-------2---|-----2-------2---|
A|-3---------------|-----------------|-0-------0-------|-0---------------|
E|---------3-------|-3-------3-------|-----------------|---------3-------|

 F                                   C                 G
e|-----------------|-----------------|-----------------|-------0h1-------|
B|-------1-------1-|-----------1-----|-------1-------1-|---------------1-|
G|---2-------2-----|---2---0h2-----2-|---0-------0-----|---0-------0-----|
D|-----3-------3---|-----3-------3---|-----2-------2---|-----0-------0---|
A|-----------------|-----------------|-----------------|-----------------|
E|-1-------1-------|-1-------1-------|-3-------3-------|-3-------3-------|

 C                  G                 Am                C/G
e|-----------------|-------0h1-------|-----------------|-----------------|
B|---------------1-|---------------1-|---------------1-|---------------1-|
G|-----------0-----|---0-------0-----|-----------2-----|-----------2-----|
D|-----2-------2---|-----0-------0---|-----2-------2---|-----2-------2---|
A|-3---------------|-----------------|-0-------0-------|-0---------------|
E|---------3-------|-3-------3-------|-----------------|---------3-------|

 D7/F#                               G        G6       G7
e|-----------------|-----------------|-----------------|-----------------|
B|-------1-------1-|-------1-------1-|-------0-------0-|-------0-------0-|
G|---2-------2-----|---2-------2-----|---0-------0-----|---0-------0-----|
D|-----0-------0---|-----0-------0---|-----0-------2---|-----3-------3---|
A|-----------------|-----------------|-----------------|-----------------|
E|-2-------2-------|-2-------2-------|-3-------3-------|-3-------3-------|

 C                                   C7
e|-----------------|-----------------|-----------------|-----------------|
B|---------------1-|---------------1-|-------1-------1-|-------1-------1-|
G|-----------0-----|-----------0-----|---3-------3-----|---3-------3-----|
D|-----2-------2---|-----2-------2---|-----2-------2---|-----2-------2---|
A|-3---------------|-3---------------|-3-------3-------|-0-------0-------|
E|---------3-------|---------3-------|-----------------|-----------------|

 F                                   D7/F#
e|-----------------|-----------------|-----------------|------0h1--------|
B|-------1-------1-|-------1-------1-|-------1-------1-|---------------1-|
G|---2-------2-----|---2-------2-----|---2-------2-----|---2-------2-----|
D|-----3-------3---|-----3-------3---|-----0-------0---|-----0-------0---|
A|-----------------|-----------------|-----------------|-----------------|
E|-1-------0-------|-1-------1-------|-2-------2-------|-2-------2-------|

 C                 G                 Am       C/G      F
e|-----------------|-------0h1-------|-----------------|-----------------|
B|---------------1-|---------------1-|-------1-------1-|-------1-------1-|
G|-----------0-----|---0-------0-----|---2-------2-----|---2-------2-----|
D|-----2-------2---|-----0-------0---|-----2-------2---|-----3-------3---|
A|-3---------------|-----------------|-0---------------|-----------------|
E|---------3-------|-3-------3-------|---------3-------|-1-------0-------|

 C                 G                 C
e|-----------------|-------0h1-------|-----------------|-----------------|
B|-------1-------1-|---------------1-|---------------1-|---------------1-|
G|---0-------0-----|---0-------0-----|-----------0-----|-----------0-----|
D|-----2-------2---|-----0-------0---|-----2-------2---|-----2--------2--|
A|-----------------|-----------------|-3---------------|-3---------------|
E|-3-------3-------|-3-------3-------|---------3-------|----------3------|

Play this four times in between verses:

 C
e|-----------------|
B|---------------1-|
G|-----------0-----|
D|-----2-------2---|
A|-3---------------|
E|---------3-------|


*************************
|h    hammer-on
|p    pull-off
*************************


[Verse 1]

         C               G              Am         G 
Well, it ain't no use to sit and wonder why, babe
F                       C        G
Iff'n you don't know by now
       C               G              Am         G 
An' it ain't no use to sit and wonder why, babe
D7/F#              G   G6 G7 
It'll never do somehow
          C                    C7
When your rooster crows at the break of dawn
F                        D7/F#
Look out your window and I'll be gone
       C   G          Am   G    F
You're the reason I'm trav'lin' on
    C           G            C
But don't think twice, it's alright


[Verse 2]

       C               G               Am         G 
An' it ain't no use in turnin' on your light, babe
F                 C          G
The light I never knowed
       C               G               Am         G 
An' it ain't no use in turnin' on your light, babe
D7/F#                       G   G6 G7 
I'm on the dark side of the road
      C                                  C7
Still I wish there was somethin' you would do or say
F                            D7/F#
To try and make me change my mind and stay
   C     G            Am   G     F
We never did too much talkin' anyway
    C           G            C
But don't think twice, it's alright


[Verse 3]

      C               G              Am         G 
So it ain't no use in callin' out my name, gal
F                   C          G
Like you never done before
       C               G               Am         G 
An' it ain't no use in callin' out my name, gal
D7/F#               G   G6 G7 
I can't hear you anymore
      C                        C7
I'm a thinkin' and a wond'rin' walkin' down the road
F                       D7/F#
I once loved a woman, a child I'm told
  C           G             Am   G        F
I give her my heart but she wanted my soul
    C           G            C
But don't think twice, it's alright


[Verse 3]

C  G           Am    G 
So long, honey babe
F                        C       G
Where I'm bound, I can't tell
C          G          Am       G 
Goodbye is too good a word, babe
   D7/F#                   G   G6 G7 
So I'll just say fare thee well
  C                        C7
I ain't sayin' you treated me unkind
F                              D7/F#
You could have done better but I don't mind
C                     G  Am       G    F
You just kinda wasted my precious time
    C           G            C
But don't think twice, it's alright

https://tabs.ultimate-guitar.com/b/bob_dylan/dont_think_twice_its_all_right_ver4_tab_1133891id_02032012date.htm