Tablature guitare : Babyshambles – Lost Art Of Murder

Hi at all, this is the new song from the upcoming babyshambles record.
It was pretty hard to figure it out, because pete played it only one time, at jonathan 
friday night show.

Chords used:
F    (x 8 7 5 6 5)
F/Am (x 7 7 5 5 5)
A#   (6 8 7 x x x)
C    (8 7 5 5 5 x)
A#2  (6 8 6 7 6 6)
C2   (8 10 8 9 8 8)
Dm   (x 5 7 7 6 5)
Am   (5 7 7 5 5 5)
Gm   (3 5 5 3 3 3)
C3   (x 3 5 5 5 3)
C#   (x 4 6 6 6 4)
F2   (1 3 3 2 1 1)
A    (5 7 7 6 5 5)
A#3  (6 8 8 7 6 6)
A#m  (6 8 8 6 6 6)

[Intro]

e------------------  --------------  ------5---------  -------------|
B------------6--5--  --------6--5--  ----------6--5--  --------6----|
G------5-----------  ----(5)-------  ----5---5-------  ------5------|
D----7---(7)-------  --7-----------  --8-------------  ----7--------|
A--8---------------  --------------  ----------------  --8--------8-|
E------------------  --------------  ----------------  -------------|

e--5-------5----5--5---5----  --5--5--6----5--5--  --------------|
B--6-------5h6--6--5h6p5----  --5--6--6p5--8--6--  -----------6--|
G--5--x5---5----5--5---5----  --5--5--5----5--5--  ---------5----|
D--7-------7----7--7---7----  --8--8--8----8--8--  -------7------|
A--8-------8----8--8---8----  -------------------  --7--8--------|
E---------------------------  -------------------  --------------|

[Verse 1]

F
 Could roll a four
F/Am
 Could roll a nine
A#                         C
 Find yourself washed up in paradise


F
 Just like before
F/Am
 She never used to mind
A#                 A#2 C2     F
 I lost my phone in       paradise

[Refrain]

    Dm                    Am
And what a nice day for a murder
    Gm                             C3
You call yourself a killer but the only thing that you're
C#              Dm
killing is your time

                Am
There's nothing absurder
  Gm
A bird is just a burden
        C3                     C#            F2
To your heart your soul your body spirit and mind

                        A
Oh dont look at me like that
                 A#3
She won't take you back
             A#m                  F2
You said too much, you been too unkind
                A
Get up off your back
             A#3
Stop smoking that
          A#m
You could change your life
       A#m
Do you think you'll change their mind

Then repeat Intro, but with some variations I couldn't figure out. Sorry...

F
 Could roll a four
F/Am
 Could roll a nine
A#                         C
 Find yourself washed up in paradise

F
 No light before
F/Am
 No light behind
A#                        A#2 C2    F
 Someone else washed up in      paradise

    Dm                    Am
And what a nice day for a murder
    Gm                             C3
You call yourself a killer but the only thing that you're
C#              Dm
killing is your time

                Am
There's nothing absurder
  Gm
A bird is just a burden
        C3                      C#           F2
To your heart your soul your body spirit and mind

                        A
Oh dont look at me like that
                  A#3
She won't take you back
             A#m                  F2
You said too much, you been too unkind
                A
Get up off your back
            A#3
Stop smoking that
          A#m
You could change your life
           A#m
Do you think you'll change their mind

[Outro]

e---------------------------5--|
B------------------6---6----5--|
G--------------5-----5---5--5--|
D----------5h7---7----------7--|
A--5--7--8------------------8--|
E------------------------------|

Please rate and comment.. Thanks.



************************************

| (n)  Ghost note
| h    Hammer-on
| p    Pull-off
| x    Dead note

************************************

https://tabs.ultimate-guitar.com/b/babyshambles/lost_art_of_murder_tab.htm