Tablature guitare : Babyshambles – Fuck Forever

-------------------------------------------------------------------------------
                         FUCK FOREVER - Babyshambles
-------------------------------------------------------------------------------
Tabbed by: Ryan Kent

Tuning: Standard


[Intro]
  
   Bb       Bb      A   
e|---------X-------X----------X-XXXXXXXXXX-----------------------------------|
B|-33333333X3333333X2222222222X-XXXXXXXXXX-----------------------------------|
G|-33333333X3333333X2222222222X-XXXXXXXXXX-----------------------------------|
D|-33333333X3333333X2222222222X-XXXXXXXXXX-----------------------------------|
A|-11111111X1111111X0000000000X-XXXXXXXXXX-----------------------------------|
E|---------X-------X----------X-XXXXXXXXXX-----------------------------------|

   Bm     G      D      F#
e|-22-XX------XX----XX-9-9--XX-----------------------------------------------|
B|-33-XX-1212-XX-77-XX-1010-XX-----------------------------------------------|
G|-44-XX-1212-XX-77-XX-1111-XX----Play 3 Times-------------------------------|
D|-44-XX-1212-XX-77-XX-1111-XX-----------------------------------------------|
A|-22-XX-1010-XX-55-XX-9-9--XX-----------------------------------------------|
E|----XX------XX----XX------XX-----------------------------------------------|

"What Im saying, what i'm saying..."
Starts singing whilst playing these chords in a picking style:
   
    D    C    Bm
e|------------2--------------------------------------------------------------|
B|--7----5----3--------------------------------------------------------------|
G|--7----5----4--------------------------------------------------------------|
D|--7----5----4--------------------------------------------------------------|
A|--5----3----2--------------------------------------------------------------|
E|---------------------------------------------------------------------------|

"So what's the use between death and glory?":
 
    A7 (Variants - Using little finger to change)
e|---------------------------------------------------------------------------|
B|--8-8-8-8-8-7-5-7----------------------------------------------------------|
G|--6-6-6-6-6-6-6-6----------------------------------------------------------|
D|--5-5-5-5-5-5-5-5----Play 2 Times------------------------------------------|
A|--7-7-7-7-7-7-7-7----------------------------------------------------------|
E|--5-5-5-5-5-5-5-5----------------------------------------------------------|

"Happy endings, no, they never bore me"

        Em
e|------7-7-7-7-7-7-7-7------------------------------------------------------|
B|------8-8-8-8-8-8-8-8------------------------------------------------------|
G|------9-9-9-9-9-9-9-9----Play 2 Times--------------------------------------|
D|------9-9-9-9-9-9-9-9------------------------------------------------------|
A|--5h7-7-7-7-7-7-7-7-7------------------------------------------------------|
E|---------------------------------------------------------------------------|

"They, they have a way"

    A7 (Variants - Using little finger to change)
e|---------------------------------------------------------------------------|
B|--8-8-8-8-8-7-5-7----------------------------------------------------------|
G|--6-6-6-6-6-6-6-6----------------------------------------------------------|
D|--5-5-5-5-5-5-5-5----Play 2 Times------------------------------------------|
A|--7-7-7-7-7-7-7-7----------------------------------------------------------|
E|--5-5-5-5-5-5-5-5----------------------------------------------------------|

"And to make you toe the..."

    A7
e|---------------------------------------------------------------------------|
B|--555555555555555----------------------------------------------------------|
G|--666666666666666----------------------------------------------------------|
D|--555555555555555----------------------------------------------------------|
A|--777777777777777----------------------------------------------------------|
E|--555555555555555----------------------------------------------------------|

"...line"

   Bm  G   D   F#
e|-22---------9-9------------------------------22-XX------XX----XX-9---------|
B|-33/1212\77/1010-----------------------------33-XX-1212-XX-77-XX-10--------|
G|-44/1212\77/1111---Play 7 Times, 8th time: --44-XX-1212-XX-77-XX-11--------|
D|-44/1212\77/1111-----------------------------44-XX-1212-XX-77-XX-11--------|
A|-22/1010\55/9-9------------------------------22-XX-1010-XX-55-XX-9---------|
E|------------------------------------------------XX------XX----XX-----------|

"What's the use between death and glory?"

    A7 (Variants - Using little finger to change)
e|---------------------------------------------------------------------------|
B|--8-8-8-8-8-7-5-7----------------------------------------------------------|
G|--6-6-6-6-6-6-6-6----------------------------------------------------------|
D|--5-5-5-5-5-5-5-5----Play 2 Times------------------------------------------|
A|--7-7-7-7-7-7-7-7----------------------------------------------------------|
E|--5-5-5-5-5-5-5-5----------------------------------------------------------|

"New Labour and Tory"

        Em
e|------7-7-7-7-7-7-7-7------------------------------------------------------|
B|------8-8-8-8-8-8-8-8------------------------------------------------------|
G|------9-9-9-9-9-9-9-9----Play 2 Times--------------------------------------|
D|------9-9-9-9-9-9-9-9------------------------------------------------------|
A|--5h7-7-7-7-7-7-7-7-7------------------------------------------------------|
E|---------------------------------------------------------------------------|

"All and the same"

Picking style again:

    D    C    Bm
e|------------2--------------------------------------------------------------|
B|--7----5----3--------------------------------------------------------------|
G|--7----5----4------Play 2 times--------------------------------------------|
D|--7----5----4--------------------------------------------------------------|
A|--5----3----2--------------------------------------------------------------|
E|---------------------------------------------------------------------------|

"Tell you about that way"

    A7
e|---------------------------------------------------------------------------|
B|--5-5-5-5-5-5--------------------------------------------------------------|
G|--6-6-6-6-6-6--------------------------------------------------------------|
D|--5-5-5-5-5-5--------------------------------------------------------------|
A|--7-7-7-7-7-7--------------------------------------------------------------|
E|--5-5-5-5-5-5--------------------------------------------------------------|

"And the way they make you toe the..."

    A7
e|---------------------------------------------------------------------------|
B|--555555555555555----------------------------------------------------------|
G|--666666666666666----------------------------------------------------------|
D|--555555555555555----------------------------------------------------------|
A|--777777777777777----------------------------------------------------------|
E|--555555555555555----------------------------------------------------------|

"...line"

   Bm  G   D   F#
e|-22---------9-9------------------------------22-XX------XX-----------------|
B|-33/1212\77/1010-----------------------------33-XX-1212-XX-77--------------|
G|-44/1212\77/1111---Play 3 Times, 4th time: --44-XX-1212-XX-77--------------|
D|-44/1212\77/1111-----------------------------44-XX-1212-XX-77--Pause-------|
A|-22/1010\55/9-9------------------------------22-XX-1010-XX-55--------------|
E|------------------------------------------------XX------XX-----------------|

"So fuck forever"

            Bm  G   D   F#
e|----------22---------9-9-----------------------------22XX----XX--XX9-9-----|
B|----------33/1212\77/1010----------------------------33XX1212XX77XX1010----|
G|----------44/1212\77/1111---Play 3 Times, 4th time: -44XX1212XX77XX1111----|
D|----------44/1212\77/1111----------------------------44XX1212XX77XX1111----|
A|----------22/1010\55/9-9-----------------------------22XX1010XX55XX9-9-----|
E|-------------------------------------------------------XX----XX--XX--------|

[Solo]

e|---------------------------------------------------------------------------|
B|---------------------10-8---------- 10--------------10-8-------------------|
G|-----------------/11------11--------------------11-------11----------------|
D|---/12~~--11-9-11------------11/12~----11-9-11--------------12-------------|
A|---------------------------------------------------------------------------|
E|---------------------------------------------------------------------------|

"Oh.. they have a way"

    A7
e|---------------------------------------------------------------------------|
B|--5-5-5-5-5-5--------------------------------------------------------------|
G|--6-6-6-6-6-6--------------------------------------------------------------|
D|--5-5-5-5-5-5--------------------------------------------------------------|
A|--7-7-7-7-7-7--------------------------------------------------------------|
E|--5-5-5-5-5-5--------------------------------------------------------------|

"And a way to make you toe the..."

    A7
e|---------------------------------------------------------------------------|
B|--555555555555555----------------------------------------------------------|
G|--666666666666666----------------------------------------------------------|
D|--555555555555555----------------------------------------------------------|
A|--777777777777777----------------------------------------------------------|
E|--555555555555555----------------------------------------------------------|

"...line"

   Bm  G   D   F#
e|-22---------9-9------------------------------------------------2------------|
B|-33/1212\77/1010-----------------------------------------------3------------|
G|-44/1212\77/1111----------Play till the end, Freesytle on Bm---4------------|
D|-44/1212\77/1111----------for a section, play over again and---4------------|
A|-22/1010\55/9-9-----------end the whole song on:---------------2------------|
E|----------------------------------------------------------------------------|

Listen to song for all timing etc. I'd say this tab is pretty accurate and I
have spent absolutely ages on it so please rate fairly! Enjoy this amazing song.

Ryan


************************************

| h  Hammer-on
| /  Slide up
| \  Slide down
| ~  Vibrato
| X  dead note

************************************

https://tabs.ultimate-guitar.com/b/babyshambles/fuck_forever_ver4_tab.htm