Tablature guitare : Babyshambles – 8 Dead Boys

Babyshambles - 8 Dead Boys
Album - Down In Albion

Tuning - Standard (EADGBe)


  
   Eight dead boys, sittin on a wall     eight
e|------------------------------------0-------------|
B|-----------------------------------------0--------|
G|-----------------------------------------0--------|
D|-----------------------------------------0--------|
A|-----------------------------------------0--------|
E|-----------------------------------------0--------|


   |Let ring 6 seconds|
e|-0-----------------------0---------------------2-2-2-2--|
B|-0-----------------------0---2----x-----0-0-0--0-0-0-0--|
G|-0-----------------------0---2----x-----0-0-0--2-2-2-0--|
D|-0-----------------------0---2----x-2-2-0-0-0--1-1-1-1--|
A|-0-----------------------0---0----x-2-3---x----2-2-2-2--|
E|-0-----------------------0----------------3-------------|



e|----x-x-------3-3----14-14-14------------------2-2-2-2--|
B|----x-x-----0-0-0----15-15-15---2------0-0-0-0-0-0-0-0--|
G|-0--x-x-----0-0-0----14-14-14---2------0-0-0---2-2-2-2--|
D|-3--x-x-----0-0-0--0-------0----2------x---x---1-1-1-1--|
A|-3----------0-0----0-------0----0----2-3---3---2-2-2-2--|
E|-1------3-4---------------------------------------------|


                     *Point A*
                        V
e|--------------------------------------------------------|
B|----------------3~----5---5--7-7-7b(8)r7p0--------------|
G|-0----------2---2~--------------------------------------|
D|-3----------x---0~--------------------------------------|
A|-3----------0-0-----------------------------------------|
E|-1----3-4-3---------------------------------------------|

                                              *Point B*
                                                  V
e|--------------------------------------------------------|
B|-8---8--10-10-10b(11)r10p0---3---3--5-5-5b(6)r5p0-------|
G|--------------------------------------------------------|
D|--------------------------------------------------------|
A|--------------------------------------------------------|
E|--------------------------------------------------------|



e|--------------------|Go to *Point A* and play to
B|-1------1p0---1-----|*Point B* then continue below
G|-----------------0--|
D|-----0--------------|
A|--------------------|
E|--------------------|


                    *Point C*
                        v
e|--------------------|-----------------------------------|
B|--------------------|-----------2-2---------------------|
G|------------------0-|-----------2-2----------------0----|
D|------------------0-|-----2-2---2-2----------2----------|
A|-3------3---3-----0-|-0-0-----0-0-0-0--3-3-3-----3---0--|
E|-1----0-1-0-1-3-3---|-----------------------------------|
 


e|-------------2--------------------------------0-0------|
B|-------------3--------2-----------------------0-0-0----|
G|-------0-----2--------2-----2-----------------0-0-0----|
D|-------------0--------2-----2--------5-5-5-5--0-0-0----|
A|-2-2-2----------------0-----0----3---3-3-3-3--0-0-x----|
E|----------------------------------------------0---3----|
 |                                                        |
 |              W/Bar                                     |
 |       |----------------|                               |
e|-------------2*-----------------------------------------|-
B|-------------3*-------V2--------------------------------|-
G|-------0*----2*-------V2----------5---------------------|-2nd time
D|-------------0*-------V2----------5---------------------|-only
A|-2-2-2----------------V0----------3-------------x\\\\---|-
E|--------------------------------------------------------|-
                        ^1/2 step down then release



                                             2nd time only
                                     vvvvvvvvvvvvvvvvvvvvvvvvvvvvvv
e|----------------------------------|------------------------------|
B|-------------------------------0--|------------------------0-0-0-|
G|-------------------------------0--|------------------------0-0-0-|
D|-------------------------------0--|------------------------0-0-0-|
A|-------------------------------x--|-3---2-3---2-3-2/9\7----------|
E|-1---0-1---0-1-0---1---0-1-1-3-3--|-5---3-5---3-5-3-----0--------|




*Point 3*[2nd time w/fig.1]                         Fig. 1
   v       |----------|                      |----------------
e|-----1-----------------------3---3-3--1----1-0-------------|
B|-3---3---3----6----------0---3---3-3--3---------3----------|
G|-2---2---2----5-----0----0---0---0----2--------------2--0--|
D|-0---0---0----3-----0----0------------0--------------------|
A|--------------3-----x--------------------------------------|
E|--------------------3--------------------------------------|




      Fig. 1               Rpt Point     
  ---------------|            V
e|--------------3--3-3-3--3---|----13-----13-----13--12--10--8--|
B|----1---------3--3-3-3--3---|----15--------15--15--13--11--10-|
G|-------0------0--0-0-0--0-0-|-14-----14----14-----------------|
D|-3--------0h2-0--0-0-0----0-|---------------------------------|
A|--------------2-------------|---------------------------------|
E|--------------3-------------|---------------------------------|


                       *Point D* (Continue with tab beneath
                          V      instructions to play till
e|------------------------3--|-  this point)
B|--------1---------------0--|-
G|--0--------0--------0-0-0--|-Play twice all
D|-----3--------------0-0----|-times round
A|--------------------x-x----|-(From Rpt Point)
E|--------------0-3---3-3----|-
                  ^
              *Point 4*


      Hello...       Hello...      Hello..
e|---------------------------------------------------0--2--2-----|
B|-----------------------------------------------3---0--2--2--3--|
G|-----2---------------0-0-0---------------------2------------2--|
D|-----2-2-2-2-2-------x-x-x-2-2-----------0---------------------|
A|-0-0-0-0-0-0-0-3-3-3-3-3-3-3-3---2-2-2-2-x---------------------|
E|-------------------------------3-3-3-3-3-3-3-------------------|


   Hello...          Hello...    Hello....
e|---------0-0-0-----0---------------------------------------------|
B|---------0-0-0-----0---1----------------0------------------------|
G|-2----0--0-0-0-0---0---0-------0------0--------------------------|
D|-2-2--0--0-0-0-2---2---2-----2------2----------------------------|
A|-0-0--0--0-0-0-3-------3---3------------------2----------------3-|
E|---------0-0-0-------------------3--------3-3---1--0-1-0-1-0-1---|
  Go to *Point C* - Play till *Point D* (Any parts with 2nd time only
  you play this time round) If tab box is directly below with what
  youve to play 2nd time then play that instead of the box above. If
  tab box for 2nd time only is attached to the tab box with tab from 
  first time round, that means you dont play that instead you simply 
  play that after whats before it. (If that makes sense)



e|---------------------------------------------------------------|
B|-5---5--7-7-7b(8)r7p0----8---8--10-10-10b(11)r10p0-------------|
G|---------------------------------------------------------------|
D|---------------------------------------------------------------|
A|---------------------------------------------------------------|
E|---------------------------------------------------------------|

                         W/Bar
                          |-|
e|-------------------------------------------------------------|
B|-3---3--5-5-5b(6)r5p0----1*------5---5---7-7b(8)r7p5-7-------|
G|-------------------------------------------------------------|
D|---------------------------------------0---------------------|
A|-------------------------------------------------------------|
E|-------------------------------------------------------------|

                                                 W/Bar
                                                  |-|
e|----------------------------15-15-15-x-15-15-15-15*----------|
B|-8---8--10-10b(11)r10/17-17------------17-17-17--------------|
G|-------------------------------------------------------------|
D|-------------------------------------------------------------|
A|-------------------------------------------------------------|
E|-------------------------------------------------------------|



e|------------------2-2-2-2-----------------2-2-2-2---|
B|-0-2---x-0-0-0-0--0-0-0-0-----------------3-3-3-3---|
G|---2---x-0-0-0-0--2-2-2-0-------x---------2-2-2-2---|
D|---2---x-x-x-x-x--1-1-1-1----3--x---------0-0-0-0---|
A|---0---x-2-3-2-x--2-2-2-2----3--x---------0-0-0-0---|
E|-----------0---3-------------1--x-3-4-3-1-----------|

                                P.M
                                |-|
e|--------------------------------------------14--------|
B|-2----x----------------------------------------15-----|
G|-2----x---0------4-4-4-4-------0------------------14--|
D|-2----x---x---2--4-4-4-4-------0----------------------|
A|-0----x-2-3-2-0--2-2-2-2------------------------------|
E|----------------------------1----3-4-3-1/10-----------|


  When it suits you.....
e|---------------------x-------------------|
B|---------------------x-------------------|
G|---------------------x-------------------|
D|-7(sb)========(9)-------7(sb)=====(8)----|
A|-----------------------------------------|
E|-----------------------------------------|



e|-x--------------------x----------------------------|
B|-x--------------------x----------------------------|
G|-x--------------------x----------------------------|
D|----7(sb)=======(9)------7(sb)====(8)-----8====----|
A|---------------------------------------------------|
E|---------------------------------------------------|



e|---------------------------------------------------------|
B|---------------------------------------------------------|
G|---------------------------------------------------------|
D|----------------------9-11-9----------------10-12-10-----|
A|-----7-9-7-------7-11--------11-9-7/8-10/12----------12--|
E|-9-9-------9-7-0-----------------------------------------|


e|-------------------------------------------------------|
B|-------------------------------------------------------|
G|-------------------------------------------------------|
D|---0-----7-9-11----------------------------9-11-9------|
A|-8---5-9--------9-7-0-----7-9-7-------7-11---------11--|
E|----------------------9-9-------9-7-0------------------|


e|-------------------------------------------------|
B|-------------------------13----------------------|
G|-------------------------12-14-x----12-12-x------|
D|-------------10-12-14-14---------14-------x-11---|
A|-9-7/8-10/12-------------------------------------|
E|-------------------------------------------------|

                                                              
e|---------------------------------|
B|-----8---8-8-------------8-8-8---|
G|-----9---9-9-9-9-9-9-9-9-9-9-9-9-|x3
D|-7---7---7-7-7-7-7-7-7-7-7-7-7-7-|
A|-0---0---0-0-0-0-0-0-0-0-0-0-0-0-|
E|---------------------------------|


e|------------------------------------------------------------|
B|-----8---8-8-------------8-8-8-10-10-10-10-10-10-10-10-10---|
G|-----9---9-9-9-9-9-9-9-9-9-9-9-9--9--9--9--9--9--9--9--9----|
D|-7---7---7-7-7-7-7-7-7-7-7-7-7------------------------------|
A|-0---0---0-0-0-0-0-0-0-0-0-0-0------------------------------|
E|------------------------------------------------------------|


e|----------------------|--13-13----13-13----13-13--------|
B|-10-10-10-10-------10-|--15-15----15-15----15-15----15--|
G|-9--9--9--9--5-5-5-9--|--14-14----14-14----14-14----14--|
D|-------------5-5-5----|---------------------------------|
A|-------------3-3-3----|---------------------------------|
E|----------------------|---------------------------------|


                W/bar                       W/bar 
            |-----------|                    |-|
e|--------------------------0-0--0-------------------|
B|----13--------------3*------3--1-0-1---------------|
G|-12-----------------2*-----------------------------|
D|-------10------------------------------------------|
A|----------10*----------------------------3---------|
E|-------------------------------------------3*------|




e|-5-5--5---5-5--5-5---1----------1-1-1-1-1-1-1-1-1-0-0-0---------|
B|-6-6--6---6-6--6-6---1-0-1------3-3-3-3-3-3-3-3-3-3-3-3-3-3-3-3-|
G|-7-7--7---7-7--7-7----------0---2-2-2-2-2-2-2-2-2-2-2-2-2-2-2-2-|
D|-7-7--7---7-7--7-7----------0---0-0-0-0-0-0-0-0-0-0-0-0-0-0-0-0-|
A|---5------------------------x-----------------------------------|
E|----------------------------3-----------------------------------|




e|-1-1-1-1-1-1-1-1--3---3---|Go To *Point 3*
B|-1-1-1-1-1-1-1-1--3---3---|Play until
G|-2-2-2-2-2-2-2-2--0---0---|*Point 4* then
D|-3-3-3-3-3-3-3-3--0---0---|continue with
A|------------------x---x---|tab below
E|------------------3---3---|



e|-3----------------------2-2-2-2-------|--------x-x--|
B|-0-------2---x-x-x-0-0--0-0-0-0-------|--------x-x--|
G|-0-------2---x-x-x-0-0--x-x-x---------|--------x-x--|
D|-0-------2---x-x-x-0-0--1-1-1---------|-------------|
A|-x-------0---3-2-3-x-x--2-2-2-2b(3)r2-|--2/15\------|
E|-3---4-------------3-3----------------|-------------|



Legend:

P.M = Palm Mute
W/bar = Whammy Bar
* = Trill (whammy bar)
h = Hammer on
p = pull off
x = dead note
x\\\ = pick scrape

v2
v2 = Depress with W/bar
v2
v0

b = bend
(sb) = slow bend (===) is a sort of indicator of  time period of bending.
10b(11)r10 = bend note on 10th fret to 11 then release back to 10.
~ = Hold note

https://tabs.ultimate-guitar.com/b/babyshambles/8_dead_boys_ver2_tab.htm