Tablature guitare : Arctic Monkeys – Still Take You Home

Arctic Monkeys - Still Take You Home
Tabbed By - Zac Mckenna

[Intro]

E------------------------------------------------|
B------------------------------------------------|
G------------------------------------------------|
D------------------------------------------------| X3
A-----5-4-0------5-4-0------5-4-0------5-4-0-----|
E-6-6--------6-6--------6-6--------6-6-----------|

E------------------------------------------------|
B------------------------------------------------|
G------------------------------------------------|
D------------------------------------------------|
A-----5-4-0------5-4-0------5-4-0------5-4444----|
E-6-6--------6-6--------6-6--------6-6-----------|


[Solo]

E------------------------------------------------|
B------------------------------------------------|
G------------------------------------------------|
D-8-8-88-6-------------------------6-------------|
A----------8-8-6-8-8-6-8-8-6-8-6-8---8-6-8-6-44--|
E------------------------------------------------|

E------------------------------------------------|
B------------------------------------------------|
G------------------------------------------------|
D--------------------6--8-6-8--8-6-8--8-6-88-6---|
A-66-8-44-66-8-66-8------------------------------|
E------------------------------------------------|


[Verse]

E-----------------------------------------------|
B-----------------------------------------------|
G----------------------8-XX-8-8-XX-11-XX-10-X---|
D-8-XX-8-8-8-8-XX-8-X--8-XX-8-8-XX-11-XX-10-X---| X4
A-8-XX-8-8-8-8-XX-8-X--6-XX-6-6-XX-9--XX-8--X---|
E-6-XX-6-6-6-6-XX-6-X---------------------------|


[Chorus]

E----------------------------------------------------------|
B----------------------------------------------------------|
G-8--8--8----6--6--6---------------------------------------|
D-8--8--8----6--6--6----8-8-8-8-8-8-8-8-8-8-8-8-8-8-8-8----|
A-6--6--6----4--4--4----8-8-8-8-8-8-8-8-8-8-8-8-8-8-8-8----|
E-----------------------6-6-6-6-6-6-6-6-6-6-6-6-6-6-6-6----|

E-------------------------------------------|
B-------------------------------------------|
G-8--8--8----6--6--6------------------------|
D-8--8--8----6--6--6------------------------|
A-6--6--6----4--4--4------------------------|
E-------------------------------------------|


[Verse]

E-------------------------------------------|
B-------------------------------------------|
G-------------------8-XX-88-XX-11-XX-10-X---|
D-8-XX-8888-XX-8-X--8-XX-88-XX-11-XX-10-X---| X4
A-8-XX-8888-XX-8-X--6-XX-66-XX-9--XX-8--X---|
E-6-XX-6666-XX-6-X--------------------------|


[Chorus]

E----------------------------------------------------------|
B----------------------------------------------------------|
G-8--8--8----6--6--6---------------------------------------|
D-8--8--8----6--6--6----8-8-8-8-8-8-8-8-8-8-8-8-8-8-8-8----|
A-6--6--6----4--4--4----8-8-8-8-8-8-8-8-8-8-8-8-8-8-8-8----|
E-----------------------6-6-6-6-6-6-6-6-6-6-6-6-6-6-6-6----|

E-------------------------------------------|
B-------------------------------------------|
G-8--8--8----6--6--6------------------------|
D-8--8--8----6--6--6------------------------|
A-6--6--6----4--4--4------------------------|
E-------------------------------------------|


[Bridge]

e----------------------------------------------------|
B----------------------------------------------------|
G----------------------------------------------------|
D----------8-8-6-------------------------------------| X2
A----------------8-7-6-XX-6-X-9-9-999-8--------------|
E-6-XX-6-X-------------------------------------------|

E----------------------------------------------------|
B----------------------------------------------------|
G---------6--------6-8-8-8-6---6-8-8-8-6-------------|
D---8-6-8---8--6-8-----------8-----------8-8-X-6-7-8-|
A----------------------------------------------------|
E-6--------------------------------------------------|

E----------------------------------------------------|
B----------------------------------------------------|
G-----------------6---8-S-10-10-6--------------------|
D--------6---6-8----8--------------8-8-8-8--6--------|
A-6-7-8----8-----------------------------------8-----|
E----------------------------------------------------|

E-----------------------------------------|
B-----------------------------------------|
G-8----6-----------------8----6-----------|
D-8----6--------8--------8----6-----------|
A-6----4--------8--------6----4-----------|
E---------------6-------------------------|

E------------------------------------------------|
B------------------------------------------------|
G------------------------------------------------|
D------------------------------------------------|
A-----5-4-0------5-4-0------5-4-0------5-4-0-----|
E-6-6--------6-6--------6-6--------6-6-----------|

E------------------------------------------------|
B------------------------------------------------|
G------------------------------------------------|
D------------------------------------------------|
A-----5-4-0------5-4-0------5-4-0------5-4444----|
E-6-6--------6-6--------6-6--------6-6-----------|


[Chorus]

E-----------------------------------------|
B-----------------------------------------|
G-8-8-8-8-8-8-8-8----6-6-6-6-6-6-6-6------|
D-8-8-8-8-8-8-8-8----6-6-6-6-6-6-6-6------|
A-6-6-6-6-6-6-6-6----4-4-4-4-4-4-4-4------|
E-----------------------------------------|

E------------------------------------------------------------------------|
B------------------------------------------------------------------------|
G------------------------------------------------------------------------|
D-8-8-8-8-8-8-8-8-8-8-8-8-8-8-8-8-8-8-8-8-8-8-8-8-8-8-8-8-8-8-8-8--------|
A-8-8-8-8-8-8-8-8-8-8-8-8-8-8-8-8-8-8-8-8-8-8-8-8-8-8-8-8-8-8-8-8--------|
E-6-6-6-6-6-6-6-6-6-6-6-6-6-6-6-6-6-6-6-6-6-6-6-6-6-6-6-6-6-6-6-6--------|

E-----------------------------------------|
B-----------------------------------------|
G-8-8-8-8-8-8-8-8----6-6-6-6-6------------|
D-8-8-8-8-8-8-8-8----6-6-6-6-6------------|
A-6-6-6-6-6-6-6-6----4-4-4-4-4------------|
E-----------------------------------------|


[Verse]

E----------------------------------------------------------------------------|
B----------------------------------------------------------------------------|
G----------------------------------8-8-8-8-8-8-8-8--11-11-11-11-10-10-10-10--|
D-8-8-8-8-8-8-8-8-8-8-8-8-8-8-8-8--8-8-8-8-8-8-8-8--11-11-11-11-10-10-10-10--| X3
A-8-8-8-8-8-8-8-8-8-8-8-8-8-8-8-8--6-6-6-6-6-6-6-6--9--9--9--9--8--8--8--8---|
E-6-6-6-6-6-6-6-6-6-6-6-6-6-6-6-6--------------------------------------------|


[Verse]

E--------------------------------------------------------------------------|
B--------------------------------------------------------------------------|
G----------------------------------8-8-8-8-8-8-8-8--11-11--10-10-----------|
D-8-8-8-8-8-8-8-8-8-8-8-8-8-8-8-8--8-8-8-8-8-8-8-8--11-11--10-10--8--------|
A-8-8-8-8-8-8-8-8-8-8-8-8-8-8-8-8--6-6-6-6-6-6-6-6--9--9---8--8---8--------|
E-6-6-6-6-6-6-6-6-6-6-6-6-6-6-6-6---------------------------------6--------|



************************************

| X Dead note

************************************

no u twat the intros perfect. good tab, but at the very start and at various places in the song, alex plays this:
------------------
------------------
---8-6-8---6-3-6--
------------------
------------------
------------------
At the start, it sounds like he just frets it and doesnt actually pluck the notes. Before he sings "what do u know?" he plucks it. Thanks and your welcome

THE INTRO IS WRONG I HAV DA TAB BOOK THIS IS THE INTRO
--------------------
--------------------
-------------------- x5 THEN 
--------------------
-------5-4----------
--66----------------

---------------------
---------------------
--------------------- 
---------------------
-------5-4-----------
--66-------5---------

EVERY SO OFTEN HE PLAYS THAT

https://tabs.ultimate-guitar.com/a/arctic_monkeys/still_take_you_home_ver4_tab.htm