Tablature guitare : Arctic Monkeys – Mardy Bum

Source 1 : https://tabs.ultimate-guitar.com/a/arctic_monkeys/mardy_bum_solo_tab.htm

Arctic Monkeys

Mardy Bum

Lead Guitar Part (Alex Turner)

Have a crack on this. Sounds fairly spot on i reckon. Let me know what you think at
tommyfellows@hotmail.com

The start to the intro is how Alex plays it because ive seen them play a few times.
It's all done by ear after that though,because he's always got his back turned for
the solos. 

Enjoy 


[Intro]

e|--7777-5-----------------------|
B|---------7-5-------------------|
G|-------------7/4-2-4-2---------|
D|-----------------------4--2----|
A|-------------------------------|
E|-------------------------------|
 
e|------------------------------------------------------------|
B|-7--7---7--------------7--7---7-----------------------------|
G|------9---9-7---7-9---------9---9-7--7-9-6-7-7-6-4-2/77777-9|
D|------------------------------------------------------------|
A|------------------------------------------------------------|
E|------------------------------------------------------------|

e|-------------------------------------------------------------------|
B|-7--7---7-------------7-7-7---7------------------------------------|
G|------9---9-7--7-9----------9---9-7--7-9-6-7-7-6-4--6/7---77777/9-7|
D|-------------------------------------------------------------------|
A|-------------------------------------------------------------------|
E|-------------------------------------------------------------------|

                                  (live alternative)
                                              e|---------------------|
                                              B|---------------------|
                                              G|-6-7-666-7--77777/9-7|
                                              D|---------------------|
                                              A|---------------------|
                                              E|---------------------|

[Solo]

e|-------------------------------------------------------|
B|-------------------------------------------------------|
G|-/9-7-6-7-6h7-9-7-6-7-6----------------------2---------|
D|------------------------9-11-9-7-9-7-4-4-2h4---4-2-0-0-|
A|-------------------------------------------------------|
E|-------------------------------------------------------|

e|-------------------------------------------------------|
B|-------------------------------------------------------|
G|--7777-9-6--66-7-9-11-9-7-4-44/7-7--9h11-9-7-9-7-------|
D|-------------------------------------------------------|
A|-------------------------------------------------------|
E|-------------------------------------------------------|



************************************

| h  Hammer-on
| /  Slide up

************************************

Commentaire : 

I'm afraid i made a slight mistake on the start of the solo...

ORIGINAL SOLO

e-------------------------------------------------------|
B-------------------------------------------------------|
G-/9-7-6-7-6h7-9-7-6-7-6----------------------2---------|
D------------------------9-11-9-7-9-7-4-4-2h4---4-2-0-0-|
A-------------------------------------------------------|
E-------------------------------------------------------|

AND THIS IS HOW ITS SUPPOSED TO GO. ITS A BIT EASIER AND SOUNDS BETTER. ENJOY

e-------------------------------------------------------|
B-------------------------------------------------------|
G-/9-7-6-7-6h7-9-7-6-7-6--4-6-4-2-4-2---------2---------|
D-------------------------------------4-4-2h4---4-2-0-0-|
A-------------------------------------------------------|
E-------------------------------------------------------|

Source 2 : https://tabs.ultimate-guitar.com/a/arctic_monkeys/mardy_bum_ver6_tab.htm

 

-------------------------------------------------------------------------------
                             SONG NAME - Band Name
-------------------------------------------------------------------------------
Tabbed by: Simran Bola (simma94 - age 15)
Email: simranbola@hotmail.com

Tuning: Standard (EADGBe)

[Intro]
(The chords playing behind the intro are similar to the ones I have put below)

e|--7777-5-----------------------|
B|---------7-5-------------------|
G|-------------7/4-2-4-2---------|
D|-----------------------4--2----|
A|-------------------------------|
E|-------------------------------|

e|------------------------------------------------------------|
B|-7--7---7--------------7--7---7-----------------------------|
G|------9---9-7---7-9---------9---9-7--7-9-6-7-7-6-4-2/77777-9|
D|------------------------------------------------------------|
A|------------------------------------------------------------|
E|------------------------------------------------------------|

e|-------------------------------------------------------------------|
B|-7--7---7-------------7-7-7---7------------------------------------|
G|------9---9-7--7-9----------9---9-7--7-9-6-7-7-6-4--6/7---77777/9-7|
D|-------------------------------------------------------------------|
A|-------------------------------------------------------------------|
E|-------------------------------------------------------------------|

(Straight after intro)
These chords are strummed once

     "Now then mardy bum..."

e|--------------------9----------10----------9----------7--------------------|
B|--------------------11---------12----------10---------8--------------------|
G|--------------------11---------12----------11---------9--------------------|
D|--------------------11---------12----------11---------9--------------------|
A|--------------------9----------10----------9----------7--------------------|
E|--------------------9----------10----------9----------7--------------------|

(You can easily work out the rhythm for yourself, it contains a lot of bar muting)

These are the 'chikka chikka' chords

"a gun and it goes off"

e|----------5---------5----------9-----------10---------9----------7---------|
B|----------5---------7----------11----------12---------10---------8---------|
G|----------6---------7----------11----------12---------11---------9---------|
D|----------7---------7----------11----------12---------11---------9---------|
A|----------7---------5----------9-----------10---------9----------7---------|
E|----------5---------5----------9-----------10---------9----------7---------|

  "Laugh and jokes..."    "cuddles"

e|----------3----------5----------5-(x2)------5----------2-(x3)--------------|
B|----------3----------5----------7-----------5----------3-------------------|
G|----------4----------6----------7-----------6----------4-------------------|
D|----------5----------7----------7-----------7----------4-------------------|
A|----------5----------7----------5-----------7----------2-------------------|
E|----------3----------5----------5-----------5----------2-------------------| (x2)

"all arguementative"   "face on"

e|----------3----------5----------5------------------------------------------|
B|----------3----------5----------7------------------------------------------|
G|----------4----------6----------7--(back to chikka chika)------------------|
D|----------5----------7----------7------------------------------------------|
A|----------5----------7----------5------------------------------------------|
E|----------3----------5----------5------------------------------------------|

Just after the second time he sings "face on" where it goes into power chords


"Sorry I was late"

e|---------------------------------------------------------------------------|
B|---------------------------------------------------------------------------|
G|---------------------------------------------------------------------------|
D|-------{---4----------5-------}-----------4-----------5-----------7--------|
A|-------{---4----------5-------}-----------4-----------5-----------7--------|
E|-------{---2-(x8)-----3-(x8)--}-(x3)------2-(x8)------3-(x4)------5-(x4)---|


[Solo]

e|-------------------------------------------------------|
B|-------------------------------------------------------|
G|-7/9-7-6-7-6h7-9-7-6-7-6----------------------2--------|
D|------------------------9-11-9-7-9-7-4-4-2h4---4-2-0-0-|
A|-------------------------------------------------------|
E|-------------------------------------------------------|

e|-------------------------------------------------------|
B|-------------------------------------------------------|
G|--7777-9-6--66-7-9-11-9-7-4-44/7-7--9h11-9-7-9-7-------|
D|-------------------------------------------------------|
A|-------------------------------------------------------|
E|-------------------------------------------------------|

   "Laugh and jokes..."    "cuddles"

e|----------3----------5----------5-(x2)------5----------2-(x3)--------------|
B|----------3----------5----------7-----------5----------3-------------------|
G|----------4----------6----------7-----------6----------4-------------------|
D|----------5----------7----------7-----------7----------4-------------------|
A|----------5----------7----------5-----------7----------2-------------------|
E|----------3----------5----------5-----------5----------2-------------------| (x2)

"all arguementative"   "face on"

e|----------3----------5----------5------------------------------------------|
B|----------3----------5----------7------------------------------------------|
G|----------4----------6----------7--(end with single strum)-----------------|
D|----------5----------7----------7------------------------------------------|
A|----------5----------7----------5------------------------------------------|
E|----------3----------5----------5------------------------------------------|


I hope it's all okay, I have been searching for a decent tab for this song for a long 
and I hope I have made a good enough one, thanks for looking



************************************

| h  Hammer-on
| /  Slide up 

************************************