Tablature guitare : Arctic Monkeys – Do I Wanna Know (2)

Arctic Monkeys-Do I wanna know?

Tabbed by Tim Van de Voorde

UPGRADE: I've just upgraded the tab, totally forget I made this tab 2 years ago very fast based on their first
live version. Now I basically made a whole new tab with more details and structure. Hope you like it, rock on!
*(First version on 24/05/13)*
*(Upgraded lay out on 10/10/15)*


Intro
E|----------|
B|----------|
G|----------|
D|----------|
A|------1---|
E|--1h3---3-|

Verse/Main riff 
E|---------------------------------------------------------------|
B|---------------------------------------------------------------|
G|---------------------------------------------------------------|(5x)
D|--------1h3-1~-------------------------------------------------|
A|------1--------3/5-3~-----1-3/55-3~---1h3-5-3h5-----------1----|
E|--1h3-------------------------------------------3~----1h3--3~--|

Chorus
E|-----------------------------------------------|
B|-----------------------------------------------|
G|-----------------------------------------------|
D|--------1h3-1~---------------------------------|
A|------1--------3/5-3~-----1-3/55-3~---/5-------|
E|--1h3------------------------------------------|

E|----------------------------------------------------------|
B|----------------------------------------------------------|
G|----------------------------------------------------------|
D|----------------------------------------------------------|
A|-/10----6~---3-5-6-5-3~---1-3~---1-3/5-------------1------|
E|---------------------------------------3~------1h3---3~---|

E|----------------------------------------------------------|
B|----------------------------------------------------------|
G|----------------------------------------------------------|
D|----------------------------------------------------------|
A|-/10----6~---3-5-6-5-3~---1-3~----------------------------|
E|------------------------------------3~---------------3~---|

Verse/Main riff 
E|----------|
B|----------|
G|----------|
D|----------|
A|------1---|
E|--1h3---3-|

E|---------------------------------------------------------------|
B|---------------------------------------------------------------|
G|---------------------------------------------------------------|(2x)
D|--------1h3-1~-------------------------------------------------|
A|------1--------3/5-3~-----1-3/55-3~---1h3-5-3h5-----------1----|
E|--1h3-------------------------------------------3~----1h3--3~--|

Break (just the bass, but you can play along)
E|--------------------------------------|
B|--------------------------------------|
G|--------------------------------------| (2x)
D|--------------------------------------|
A|--/6~---------3~------/5--------------|
E|-------------------------3~------3~---|

Verse/Main riff 
E|---------------------------------------------------------------|
B|---------------------------------------------------------------|
G|---------------------------------------------------------------|
D|--------1h3-1~-------------------------------------------------|
A|------1--------3/5-3~-----1-3/55-3~---1h3-5-3h5-----------1----|
E|--1h3-------------------------------------------3~----1h3--3~--|

Chorus
E|-----------------------------------------------|
B|-----------------------------------------------|
G|-----------------------------------------------|
D|--------1h3-1~---------------------------------|
A|------1--------3/5-3~-----1-3/55-3~---/5~------|
E|--1h3------------------------------------------|

E|----------------------------------------------------------|
B|----------------------------------------------------------|
G|----------------------------------------------------------|
D|----------------------------------------------------------|
A|-/10----6~---3-5-6-5-3~---1-3~---1-3/5-------------1------|
E|---------------------------------------3~------1h3---3~---|

E|----------------------------------------------------------|
B|----------------------------------------------------------|
G|----------------------------------------------------------|
D|----------------------------------------------------------|
A|-/10----6~---3-5-6-5-3~---1-3~---1-3/5-------------1------|
E|---------------------------------------3~------1h3---3~---|

Verse/Main riff 
E|----------|
B|----------|
G|----------|
D|----------|
A|------1---|
E|--1h3---3-|

E|---------------------------------------------------------------|
B|---------------------------------------------------------------|
G|---------------------------------------------------------------|
D|--------1h3-1~-------------------------------------------------|
A|------1--------3/5-3~-----1-3/55-3~---1h3-5-3h5-----------1----|
E|--1h3-------------------------------------------3~----1h3--3~--|

E|---------------------------------------------------------------|
B|---------------------------------------------------------------|
G|---------------------------------------------------------------|
D|--------1h3-1~-------------------------------------------------|
A|------1--------3/5-3~-----1-3/55-3~---1h3-5-3h5----------------|
E|--1h3-------------------------------------------3~----------~--|

Outro
Gt 1 (Alex)
E|----------------------------------------------------------|
B|----------------------------------------------------------|
G|----------------------------------------------------------|(4x)
D|----------------------------------------------------------|
A|-/10----6~---3-5-6-5-3~---1-3~---1-3/5-------------1------|
E|---------------------------------------3~------1h3---3~---|

E|--------------------|
B|--------------------|
G|--------------------| (2x)
D|-------------0------|
A|---------1h3--------|
E|-3~------------3~---|

Gt 2 (Jamie)
e|--------------------------|
B|--------------------------|
G|---14---14--15-17---14-15-| (19x)
D|-17---17------------------|
A|--------------------------|
E|--------------------------|

Source : https://tabs.ultimate-guitar.com/a/arctic_monkeys/do_i_wanna_know_ver8_tab.htm