Tablature guitare : AC/DC – Thunderstruck

Thunderstruck - AC/DC

[Figure a:]
e|---------------------------------------------------------------------------|
B|-0-4-0-7-0-4-0-7-0-4-0-7-0-4-0-7-0-4-0-7-0-4-0-7-0-4-0-7-0-4-0-7-----------|
G|---------------------------------------------------------------------------|
D|---------------------------------------------------------------------------|
A|---------------------------------------------------------------------------|
E|---------------------------------------------------------------------------|
     
[Figure b:]
e|---------------------------------------------------------------------------|
B|-0-5-0-8-0-5-0-8-0-5-0-8-0-5-0-8-0-5-0-8-0-5-0-8-0-5-0-8-0-5-0-8-----------|
G|---------------------------------------------------------------------------|
D|---------------------------------------------------------------------------|
A|---------------------------------------------------------------------------|
E|---------------------------------------------------------------------------|
    
[Figure c:]
e|---------------------------------------------------------------------------|
B|-0-12-0-10-0-9-0-10-0-9-0-7-0-9-0-5-0-4-0-7-0-4-0-5-0-4-0-5-0-4------------|
G|---------------------------------------------------------------------------|
D|---------------------------------------------------------------------------|
A|---------------------------------------------------------------------------|
E|---------------------------------------------------------------------------|
    
[Figure d:]
e|---------------------------------------------------------------------------|
B|---------------------------------------------------------------------------|
G|-4----2-----2-2-------------4----2-----2-2---------------------------------|
D|-4----2-2---2-2-2------2\---2----2-2---2-2-2-------------------------------|
A|-2----0-2---0-0-2------2/---2----0-2---0-0-2-------------------------------|
E|--------0-------0------0\----------0-------0-------------------------------|
    
[Figure e:]
e|---------------------------------------------------------------------------|
B|---------------------------------------------------------------------------|
G|-4----2----2---2-----------------------------------------------------------|
D|-4----2----2-2-2----2------------------------------------------------------|
A|-2----0----0-2-0----2------------------------------------------------------|
E|-------------0------0------------------------------------------------------|
    
[Figure f:]
e|---------------------------------------------------------------------------|
B|---------------------------------------------------------------------------|
G|-4--2----------2--4--2-----------------------------------------------------|
D|-4--2--2-------2--4--2--2--------------------------------------------------|
A|-2--0--2-------0--2--0--2--------------------------------------------------|
E|-------0----------------0--------------------------------------------------|

Source : https://tabs.ultimate-guitar.com/a/acdc/thunderstruck_intro_ver2_tab.htm