Tablature guitare : AC/DC – Rocker

https://tabs.ultimate-guitar.com/a/acdc/rocker_tab.htm

I hope you enjoy this because it took me a while!
Anyway this is the ROCKER!

e|-----------|------------------------|------------------------|
B|-----------|------------------------|------------------------|
G|-----------|-----2------------------|-----2------------------|
D|--------0h-|--2--2--4----2----4--0h-|--2--2--4----2----4--0h-|
A|--------0--|-----0--0----0----0--0--|-----0--0----0----0--0--|
E|-----------|------------------------|------------------------|

e|------------------------|------------------------|------------------------|
B|------------------------|------------------------|------------------------|
G|-----2------------------|-----2---------------0h-|--2--2--4----2----4--0h-|
D|--2--2--4----2----4--0h-|--2--2--4----2----4--0--|-----0--0----0----0--0--|
A|-----0--0----0----0--0--|-----0--0----0----0-----|------------------------|
E|------------------------|------------------------|------------------------|

e|------------------------|------------------------|------------------------|
B|------------------------|------------------------|------------------------|
G|--2--2--4----2----4-----|-----2------------------|-----2------------------|
D|-----0--0----0----0--0h-|--2--2--4----2----4--0h-|--2--2--4----2----4-----|
A|---------------------0--|-----0--0----0----0--0--|-----0--0----0----0--0h-|
E|------------------------|------------------------|---------------------0--|

e|------------------------|------------------------|------------------------|
B|------------------------|------------------------|------------------------|
G|------------------------|------------------------|-----2------------------|
D|------------------------|---------------------0h-|--2--2--4----2----4--0h-|
A|--2--2--4----2----4--0h-|--2--2--4----2----4--0--|-----0--0----0----0--0--|
E|-----0--0----0----0--0--|-----0--0----0----0-----|------------------------|

e|------------------------|------------------------|------------------------|
B|------------------------|------------------------|------------------------|
G|-----2------------------|-----2------------------|-----2------------------|
D|--2--2--4----2----4--0h-|--2--2--4----2----4--0h-|--2--2--4----2----4--0h-|
A|-----0--0----0----0--0--|-----0--0----0----0--0--|-----0--0----0----0--0--|
E|------------------------|------------------------|------------------------|

e|------------------------|------------------------|------------------------|
B|------------------------|------------------------|------------------------|
G|-----2------------------|-----2---------------0h-|--2--2--4----2----4--0h-|
D|--2--2--4----2----4--0h-|--2--2--4----2----4--0--|-----0--0----0----0--0--|
A|-----0--0----0----0--0--|-----0--0----0----0-----|------------------------|
E|------------------------|------------------------|------------------------|

e|------------------------|------------------------|------------------------|
B|------------------------|------------------------|------------------------|
G|--2--2--4----2----4-----|-----2------------------|-----2------------------|
D|-----0--0----0----0--0h-|--2--2--4----2----4--0h-|--2--2--4----2----4-----|
A|---------------------0--|-----0--0----0----0--0--|-----0--0----0----0--0h-|
E|------------------------|------------------------|---------------------0--|

e|------------------------|------------------------|------------------------|
B|------------------------|------------------------|------------------------|
G|------------------------|------------------------|-----2------------------|
D|------------------------|---------------------0h-|--2--2--4----2----4--0h-|
A|--2--2--4----2----4--0h-|--2--2--4----2----4--0--|-----0--0----0----0--0--|
E|-----0--0----0----0--0--|-----0--0----0----0-----|------------------------|

e|------------------------|-------------------|-------------------|
B|------------------------|-------------------|-------------------|
G|-----2------------------|--2----------------|--2----------------|
D|--2--2--4----2----4--0h-|--2----------------|--2----------------|
A|-----0--0----0----0--0--|--0----------------|--0----------------|
E|------------------------|-------------------|-------------------|

e|-------------------|-------------------|------------------------|
B|-------------------|-------------------|------------------------|
G|--2----------------|--2----------------|--2--2--4----2----4--0h-|
D|--2----------------|--2----------------|-----0--0----0----0--0--|
A|--0----------------|--0----------------|------------------------|
E|-------------------|-------------------|------------------------|

e|------------------------|------------------------|------------------------|
B|------------------------|------------------------|------------------------|
G|--2--2--4----2----4-----|-----2------------------|-----2------------------|
D|-----0--0----0----0--0h-|--2--2--4----2----4--0h-|--2--2--4----2----4-----|
A|---------------------0--|-----0--0----0----0--0--|-----0--0----0----0--0h-|
E|------------------------|------------------------|---------------------0--|

e|------------------------|------------------------|------------------------|
B|------------------------|------------------------|------------------------|
G|------------------------|------------------------|-----2------------------|
D|------------------------|---------------------0h-|--2--2--4----2----4--0h-|
A|--2--2--4----2----4--0h-|--2--2--4----2----4--0--|-----0--0----0----0--0--|
E|-----0--0----0----0--0--|-----0--0----0----0-----|------------------------|

e|------------------------|------------------------|------------------------|
B|------------------------|------------------------|------------------------|
G|-----2------------------|-----2------------------|-----2------------------|
D|--2--2--4----2----4--0h-|--2--2--4----2----4--0h-|--2--2--4----2----4--0h-|
A|-----0--0----0----0--0--|-----0--0----0----0--0--|-----0--0----0----0--0--|
E|------------------------|------------------------|------------------------|

e|------------------------|------------------------|------------------------|
B|------------------------|------------------------|------------------------|
G|-----2------------------|-----2---------------0h-|--2--2--4----2----4--0h-|
D|--2--2--4----2----4--0h-|--2--2--4----2----4--0--|-----0--0----0----0--0--|
A|-----0--0----0----0--0--|-----0--0----0----0-----|------------------------|
E|------------------------|------------------------|------------------------|

e|------------------------|------------------------|------------------------|
B|------------------------|------------------------|------------------------|
G|--2--2--4----2----4-----|-----2------------------|-----2------------------|
D|-----0--0----0----0--0h-|--2--2--4----2----4--0h-|--2--2--4----2----4-----|
A|---------------------0--|-----0--0----0----0--0--|-----0--0----0----0--0h-|
E|------------------------|------------------------|---------------------0--|

e|------------------------|------------------------|------------------------|
B|------------------------|------------------------|------------------------|
G|------------------------|------------------------|-----2------------------|
D|------------------------|---------------------0h-|--2--2--4----2----4--0h-|
A|--2--2--4----2----4--0h-|--2--2--4----2----4--0--|-----0--0----0----0--0--|
E|-----0--0----0----0--0--|-----0--0----0----0-----|------------------------|

e|------------------------|------------------------|------------------------|
B|------------------------|------------------------|------------------------|
G|-----2------------------|-----2------------------|-----2------------------|
D|--2--2--4----2----4--0h-|--2--2--4----2----4--0h-|--2--2--4----2----4--0h-|
A|-----0--0----0----0--0--|-----0--0----0----0--0--|-----0--0----0----0--0--|
E|------------------------|------------------------|------------------------|

e|------------------------|------------------------|------------------------|
B|------------------------|------------------------|------------------------|
G|-----2------------------|-----2---------------0h-|--2--2--4----2----4--0h-|
D|--2--2--4----2----4--0h-|--2--2--4----2----4--0--|-----0--0----0----0--0--|
A|-----0--0----0----0--0--|-----0--0----0----0-----|------------------------|
E|------------------------|------------------------|------------------------|

  play solo
e|------------------------|------------------------|------------------------|
B|------------------------|------------------------|------------------------|
G|--2--2--4----2----4-----|-----2------------------|-----2------------------|
D|-----0--0----0----0--0h-|--2--2--4----2----4--0h-|--2--2--4----2----4-----|
A|---------------------0--|-----0--0----0----0--0--|-----0--0----0----0--0h-|
E|------------------------|------------------------|---------------------0--|

e|------------------------|------------------------|------------------------|
B|------------------------|------------------------|------------------------|
G|------------------------|------------------------|-----2------------------|
D|------------------------|---------------------0h-|--2--2--4----2----4--0h-|
A|--2--2--4----2----4--0h-|--2--2--4----2----4--0--|-----0--0----0----0--0--|
E|-----0--0----0----0--0--|-----0--0----0----0-----|------------------------|

e|------------------------|-------------------|-------------------|
B|------------------------|-------------------|-------------------|
G|-----2------------------|--2----------------|--2----------------|
D|--2--2--4----2----4--0h-|--2----------------|--2----------------|
A|-----0--0----0----0--0--|--0----------------|--0----------------|
E|------------------------|-------------------|-------------------|

e|-------------------|-------------------|------------------------|
B|-------------------|-------------------|------------------------|
G|--2----------------|--2----------------|--2--2--4----2----4--0h-|
D|--2----------------|--2----------------|-----0--0----0----0--0--|
A|--0----------------|--0----------------|------------------------|
E|-------------------|-------------------|------------------------|

e|------------------------|------------------------|------------------------|
B|------------------------|------------------------|------------------------|
G|--2--2--4----2----4-----|-----2------------------|-----2------------------|
D|-----0--0----0----0--0h-|--2--2--4----2----4--0h-|--2--2--4----2----4-----|
A|---------------------0--|-----0--0----0----0--0--|-----0--0----0----0--0h-|
E|------------------------|------------------------|---------------------0--|

e|------------------------|------------------------|------------------------|
B|------------------------|------------------------|------------------------|
G|------------------------|------------------------|-----2------------------|
D|------------------------|---------------------0h-|--2--2--4----2----4--0h-|
A|--2--2--4----2----4--0h-|--2--2--4----2----4--0--|-----0--0----0----0--0--|
E|-----0--0----0----0--0--|-----0--0----0----0-----|------------------------|

e|------------------------|------------------------|------------------------|
B|------------------------|------------------------|------------------------|
G|-----2------------------|-----2------------------|-----2------------------|
D|--2--2--4----2----4--0h-|--2--2--4----2----4--0h-|--2--2--4----2----4--0h-|
A|-----0--0----0----0--0--|-----0--0----0----0--0--|-----0--0----0----0--0--|
E|------------------------|------------------------|------------------------|

e|------------------------|------------------------|------------------------|
B|------------------------|------------------------|------------------------|
G|-----2------------------|-----2---------------0h-|--2--2--4----2----4--0h-|
D|--2--2--4----2----4--0h-|--2--2--4----2----4--0--|-----0--0----0----0--0--|
A|-----0--0----0----0--0--|-----0--0----0----0-----|------------------------|
E|------------------------|------------------------|------------------------|

e|------------------------|------------------------|------------------------|
B|------------------------|------------------------|------------------------|
G|--2--2--4----2----4-----|-----2------------------|-----2------------------|
D|-----0--0----0----0--0h-|--2--2--4----2----4--0h-|--2--2--4----2----4-----|
A|---------------------0--|-----0--0----0----0--0--|-----0--0----0----0--0h-|
E|------------------------|------------------------|---------------------0--|

e|------------------------|------------------------|------------------------|
B|------------------------|------------------------|------------------------|
G|------------------------|------------------------|-----2------------------|
D|------------------------|---------------------0h-|--2--2--4----2----4--0h-|
A|--2--2--4----2----4--0h-|--2--2--4----2----4--0--|-----0--0----0----0--0--|
E|-----0--0----0----0--0--|-----0--0----0----0-----|------------------------|

e|------------------------|------------------------|------------------------|
B|------------------------|------------------------|------------------------|
G|-----2------------------|-----2------------------|-----2------------------|
D|--2--2--4----2----4--0h-|--2--2--4----2----4--0h-|--2--2--4----2----4--0h-|
A|-----0--0----0----0--0--|-----0--0----0----0--0--|-----0--0----0----0--0--|
E|------------------------|------------------------|------------------------|

e|------------------------|------------------------|------------------------|
B|------------------------|------------------------|------------------------|
G|-----2------------------|-----2---------------0h-|--2--2--4----2----4--0h-|
D|--2--2--4----2----4--0h-|--2--2--4----2----4--0--|-----0--0----0----0--0--|
A|-----0--0----0----0--0--|-----0--0----0----0-----|------------------------|
E|------------------------|------------------------|------------------------|

e|------------------------|------------------------|------------------------|
B|------------------------|------------------------|------------------------|
G|--2--2--4----2----4-----|-----2------------------|-----2------------------|
D|-----0--0----0----0--0h-|--2--2--4----2----4--0h-|--2--2--4----2----4-----|
A|---------------------0--|-----0--0----0----0--0--|-----0--0----0----0--0h-|
E|------------------------|------------------------|---------------------0--|

e|------------------------|------------------------|------------------------|
B|------------------------|------------------------|------------------------|
G|------------------------|------------------------|-----2------------------|
D|------------------------|---------------------0h-|--2--2--4----2----4--0h-|
A|--2--2--4----2----4--0h-|--2--2--4----2----4--0--|-----0--0----0----0--0--|
E|-----0--0----0----0--0--|-----0--0----0----0-----|------------------------|


e|------------------------|------------------------|------------------------|
B|------------------------|------------------------|------------------------|
G|-----2------------------|-----2------------------|-----2------------------|
D|--2--2--4----2----4--0h-|--2--2--4----2----4--0h-|--2--2--4----2----4--0h-|
A|-----0--0----0----0--0--|-----0--0----0----0--0--|-----0--0----0----0--0--|
E|------------------------|------------------------|------------------------|

e|------------------------|------------------------|------------------------|
B|------------------------|------------------------|------------------------|
G|-----2------------------|-----2---------------0h-|--2--2--4----2----4--0h-|
D|--2--2--4----2----4--0h-|--2--2--4----2----4--0--|-----0--0----0----0--0--|
A|-----0--0----0----0--0--|-----0--0----0----0-----|------------------------|
E|------------------------|------------------------|------------------------|

e|------------------------|------------------------|------------------------|
B|------------------------|------------------------|------------------------|
G|--2--2--4----2----4-----|-----2------------------|-----2------------------|
D|-----0--0----0----0--0h-|--2--2--4----2----4--0h-|--2--2--4----2----4-----|
A|---------------------0--|-----0--0----0----0--0--|-----0--0----0----0--0h-|
E|------------------------|------------------------|---------------------0--|

e|------------------------|------------------------|-------------------|
B|------------------------|------------------------|-------------------|
G|------------------------|------------------------|--2----------------|
D|------------------------|---------------------0h-|--2----------------|
A|--2--2--4----2----4--0h-|--2--2--4----2----4--0--|--0----------------|
E|-----0--0----0----0--0--|-----0--0----0----0-----|-------------------|


e|------------------|------------------|------------------|-------------------|
B|------------------|------------------|------------------|-------------------|
G|------------------|------------------|------------------|--2----------------|
D|------------------|------------------|------------------|--2----------------|
A|------------------|------------------|------------------|--0----------------|
E|------------------|------------------|------------------|-------------------|

e|-------------------|--------------------|----------------------|
B|-------------------|--------------------|----------------------|
G|--2----------------|--2--------2--------|--2----2----2----2----|
D|--2----------------|--2--------2--------|--2----2----2----2----|
A|--0----------------|--0--------0--------|--0----0----0----0----|
E|-------------------|--------------------|----------------------|

                           14x
e|--------------------------||------------------------|------------------------|
B|--------------------------||------------------------|------------------------|
G|*------------------------*||------------------------|------------------------|
D|*--2--2--4----2----4--0h-*||--2--2--4----2----4--0h-|--2--2--4----2----4--0h-|
A|------0--0----0----0--0---||-----0--0----0----0--0--|-----0--0----0----0--0--|
E|--------------------------||------------------------|------------------------|

e|------------------------|------------------------|------------------------|
B|------------------------|------------------------|------------------------|
G|------------------------|------------------------|------------------------|
D|--2--2--4----2----4--0h-|--2--2--4----2----4--0h-|--2--2--4----2----4--0h-|
A|-----0--0----0----0--0--|-----0--0----0----0--0--|-----0--0----0----0--0--|
E|------------------------|------------------------|------------------------|

e|------------------------|------------------------|------------------------|
B|------------------------|------------------------|------------------------|
G|------------------------|------------------------|------------------------|
D|--2--2--4----2----4--0h-|--2--2--4----2----4--0h-|--2--2--4----2----4--0h-|
A|-----0--0----0----0--0--|-----0--0----0----0--0--|-----0--0----0----0--0--|
E|------------------------|------------------------|------------------------|

e|------------------------|------------------------|------------------------|
B|------------------------|------------------------|------------------------|
G|------------------------|------------------------|------------------------|
D|--2--2--4----2----4--0h-|--2--2--4----2----4--0h-|--2--2--4----2----4--0h-|
A|-----0--0----0----0--0--|-----0--0----0----0--0--|-----0--0----0----0--0--|
E|------------------------|------------------------|------------------------|

e|------------------------|------------------------|------------------------|
B|------------------------|------------------------|------------------------|
G|------------------------|------------------------|------------------------|
D|--2--2--4----2----4--0h-|--2--2--4----2----4--0h-|--2--2--4----2----4--0h-|
A|-----0--0----0----0--0--|-----0--0----0----0--0--|-----0--0----0----0--0--|
E|------------------------|------------------------|------------------------|

e|------------------------|------------------------|------------------------|
B|------------------------|------------------------|------------------------|
G|------------------------|------------------------|------------------------|
D|--2--2--4----2----4--0h-|--2--2--4----2----4--0h-|--2--2--4----2----4--0h-|
A|-----0--0----0----0--0--|-----0--0----0----0--0--|-----0--0----0----0--0--|
E|------------------------|------------------------|------------------------|

e|------------------------|------------------------|------------------------|
B|------------------------|------------------------|------------------------|
G|------------------------|------------------------|------------------------|
D|--2--2--4----2----4--0h-|--2--2--4----2----4--0h-|--2--2--4----2----4--0h-|
A|-----0--0----0----0--0--|-----0--0----0----0--0--|-----0--0----0----0--0--|
E|------------------------|------------------------|------------------------|

e|------------------------|------------------------|------------------------|
B|------------------------|------------------------|------------------------|
G|------------------------|------------------------|------------------------|
D|--2--2--4----2----4--0h-|--2--2--4----2----4--0h-|--2--2--4----2----4--0h-|
A|-----0--0----0----0--0--|-----0--0----0----0--0--|-----0--0----0----0--0--|
E|------------------------|------------------------|------------------------|

e|------------------------|------------------------|------------------------|
B|------------------------|------------------------|------------------------|
G|------------------------|------------------------|------------------------|
D|--2--2--4----2----4--0h-|--2--2--4----2----4--0h-|--2--2--4----2----4--0h-|
A|-----0--0----0----0--0--|-----0--0----0----0--0--|-----0--0----0----0--0--|
E|------------------------|------------------------|------------------------|

e|------------------------|------------------------|------------------------|
B|------------------------|------------------------|------------------------|
G|------------------------|------------------------|------------------------|
D|--2--2--4----2----4--0h-|--2--2--4----2----4--0h-|--2--2--4----2----4--0h-|
A|-----0--0----0----0--0--|-----0--0----0----0--0--|-----0--0----0----0--0--|
E|------------------------|------------------------|------------------------|

e|------------------------||
B|------------------------||
G|------------------------||
D|--2--2--4----2----4--0h-||
A|-----0--0----0----0--0--||
E|------------------------||

[Solo]

e|-------------------|------------------|-------------------|
B|-------------------|------------------|----------------0--|
G|-------------------|------------------|-------------------|
D|--7----------------|------------------|-------------------|
A|-------------------|------------------|-------------------|
E|-------------------|------------------|-------------------|

e|---------------------------|--------------------|
B|--10p-0--8p-0--7p-0--6p-0--|--13b---------------|
G|---------------------------|--------------------|
D|---------------------------|--------------------|
A|---------------------------|--------------------|
E|---------------------------|--------------------|

e|---------------------------------|------------------12--|
B|--12r--10--12------10--------10--|------------12b-------|
G|---------------11--------11------|----------------------|
D|---------------------------------|----------------------|
A|---------------------------------|----------------------|
E|---------------------------------|----------------------|

e|------------------------|--------------------------------|
B|--12b---------12r---10--|--13p-12p-10--12----10------12b-|
G|------------------------|--------------------------------|
D|------------------------|--------------------------------|
A|------------------------|--------------------------------|
E|------------------------|--------------------------------|

e|------------------------------|
B|----12p-10--12----12b-----12--|
G|------------------------------|
D|------------------------------|
A|------------------------------|
E|------------------------------|

e|------12------12------12------12------12------12--|
B|--12b-----14------14------14------14------14------|
G|--------------------------------------------------|
D|--------------------------------------------------|
A|--------------------------------------------------|
E|--------------------------------------------------|

e|------12------12------12------12------12------12--|
B|--14------14------14------14------14------14------|
G|--------------------------------------------------|
D|--------------------------------------------------|
A|--------------------------------------------------|
E|--------------------------------------------------|

e|------12------12------12------12------12------12--|
B|--14------14------14------14------14------14------|
G|--------------------------------------------------|
D|--------------------------------------------------|
A|--------------------------------------------------|
E|--------------------------------------------------|

e|------12------12------12------12------12------12--|
B|--14------14------14------14------14------14------|
G|--------------------------------------------------|
D|--------------------------------------------------|
A|--------------------------------------------------|
E|--------------------------------------------------|

e|------12------12------12------12------12--------|
B|--14------14------14------14------14--------12--|
G|------------------------------------------------|
D|------------------------------------------------|
A|------------------------------------------------|
E|------------------------------------------------|

e|--------------------------------|-------5-------------5--------|
B|--12r---10--12------10----------|--8b------8p-5--8b------8p-5--|
G|----------------11------11------|------------------------------|
D|--------------------------------|------------------------------|
A|--------------------------------|------------------------------|
E|--------------------------------|------------------------------|

e|-------5-------------5--------|-------5-------------5--------|
B|--8b------8p-5--8b------8p-5--|--8b------8p-5--8b------8p-5--|
G|------------------------------|------------------------------|
D|------------------------------|------------------------------|
A|------------------------------|------------------------------|
E|------------------------------|------------------------------|

e|-------5-------------5--------|-------5-------------5--------|
B|--8b------8p-5--8b------8p-5--|--8b------8p-5--8b------8p-5--|
G|------------------------------|------------------------------|
D|------------------------------|------------------------------|
A|------------------------------|------------------------------|
E|------------------------------|------------------------------|

e|-------5-------------5--------|-------5------------------|-------------------|
B|--8b------8p-5--8b------8p-5--|--8b------8p-5------------|-------------------|
G|------------------------------|------------------7r---5--|-------------------|
D|------------------------------|--------------------------|--7----------------|
A|------------------------------|--------------------------|-------------------|
E|------------------------------|--------------------------|-------------------|


                                                      
e|-----5------5------5------5--|------5----------------|
B|--8b----10-----10-----10-----|--10-----10~-----------|
G|-----------------------------|-----------------------|
D|-----------------------------|-----------------------|
A|-----------------------------|-----------------------|
E|-----------------------------|-----------------------|

e|-----5------5------5------5--|------5----------------|
B|--8b----10-----10-----10-----|--10-----10~-----------|
G|-----------------------------|-----------------------|
D|-----------------------------|-----------------------|
A|-----------------------------|-----------------------|
E|-----------------------------|-----------------------|

e|-----5------5------5------5--|------5------------------|-----------------------|
B|--8b----10-----10-----10-----|--10-----10~---------10--|--8p-5--8b---------10--|
G|-----------------------------|-------------------------|-----------------------|
D|-----------------------------|-------------------------|-----------------------|
A|-----------------------------|-------------------------|-----------------------|
E|-----------------------------|-------------------------|-----------------------|

e|-------------------5--|--8p-5-----5-------------------------|
B|--8p-5--8b------------|--------5-----8p-5-----5-------------|
G|----------------------|--------------------7-------7p-5-----|
D|----------------------|----------------------------------7--|
A|----------------------|-------------------------------------|
E|----------------------|-------------------------------------|

e|-----------------------|-------------5-----------|------------------|
B|-----------------------|----------------5--8--8b-|------------------|
G|--7-----5b-------------|-------5h-6--------------|------------------|
D|-----7-----------7--5--|--7----------------------|------------------|
A|-----------------------|-------------------------|------------------|
E|-----------------------|-------------------------|------------------|

e|--------------------|------------------|--------------------|------------------|
B|--12b---------------|------------------|--12b---------------|------------------|
G|--------------------|------------------|--------------------|------------------|
D|--------------------|------------------|--------------------|------------------|
A|--------------------|------------------|--------------------|------------------|
E|--------------------|------------------|--------------------|------------------|

e|--------------------|------------------|--------------------|------------------|
B|--13b---------------|------------------|--12b---------------|------------------|
G|--------------------|------------------|--------------------|------------------|
D|--------------------|------------------|--------------------|------------------|
A|--------------------|------------------|--------------------|------------------|
E|--------------------|------------------|--------------------|------------------|

e|----------------------|------------------|------------------------|
B|--15b-------------15b-|------------------|--13b-----------12b-10--|
G|----------------------|------------------|------------------------|
D|----------------------|------------------|------------------------|
A|----------------------|------------------|------------------------|
E|----------------------|------------------|------------------------|

e|--------------8--7p-5-----|--5----7p-5-----5----8p-7p-5-----|
B|-----------------------5--|-------------5----------------5--|
G|--------------------------|---------------------------------|
D|--------------------------|---------------------------------|
A|--------------------------|---------------------------------|
E|--------------------------|---------------------------------|

e|--5----7p-5-----5----8p-7p-5-----|--5----7p-5-----5----8p-7p-5-----|
B|-------------5----------------5--|-------------5----------------5--|
G|---------------------------------|---------------------------------|
D|---------------------------------|---------------------------------|
A|---------------------------------|---------------------------------|
E|---------------------------------|---------------------------------|

e|--5----7p-5-----5----8p-7p-5-----|--5----7p-5-----5----8p-7p-5-----|
B|-------------5----------------5--|-------------5----------------5--|
G|---------------------------------|---------------------------------|
D|---------------------------------|---------------------------------|
A|---------------------------------|---------------------------------|
E|---------------------------------|---------------------------------|

e|--5----7p-5-----5----8p-7p-5-----|--5----7p-5-----5----8p-7p-5-----|
B|-------------5----------------5--|-------------5----------------5--|
G|---------------------------------|---------------------------------|
D|---------------------------------|---------------------------------|
A|---------------------------------|---------------------------------|
E|---------------------------------|---------------------------------|

e|--5----7p-5-----5----8p-7p-5-----|--5----7p-5-----5----8p-7p-5-----|
B|-------------5----------------5--|-------------5----------------5--|
G|---------------------------------|---------------------------------|
D|---------------------------------|---------------------------------|
A|---------------------------------|---------------------------------|
E|---------------------------------|---------------------------------|

e|--5----7p-5-----5----8p-7p-5-----|--5----------------|-----------------------|
B|-------------5----------------5--|-------------------|-----------------------|
G|---------------------------------|-------------------|-----------2------2----|
D|---------------------------------|-------------------|--------2---------2----|
A|---------------------------------|-------------------|--0--4------------0----|
E|---------------------------------|-------------------|-----------------------|

e|------------------|-------------------|------------------------|
B|------------------|-------------------|------------------------|
G|------------------|-------------------|------------------------|
D|------------------|----------------0h-|--2--2--4----2----4--0h-|
A|------------------|----------------0--|-----0--0----0----0--0--|
E|------------------|-------------------|------------------------|

e|------------------------|------------------------|------------------------|
B|------------------------|------------------------|------------------------|
G|------------------------|------------------------|------------------------|
D|--2--2--4----2----4--0h-|--2--2--4----2----4--0h-|--2--2--4----2----4--0h-|
A|-----0--0----0----0--0--|-----0--0----0----0--0--|-----0--0----0----0--0--|
E|------------------------|------------------------|------------------------|

e|------------------------|------------------------|------------------------|
B|------------------------|------------------------|------------------------|
G|------------------------|------------------------|------------------------|
D|--2--2--4----2----4--0h-|--2--2--4----2----4--0h-|--2--2--4----2----4--0h-|
A|-----0--0----0----0--0--|-----0--0----0----0--0--|-----0--0----0----0--0--|
E|------------------------|------------------------|------------------------|

                                                     14x
e|------------------------||--------------------------||------------------5--|
B|------------------------||--------------------------||---------------------|
G|------------------------||*------------------------*||------------5h-6-----|
D|--2--2--4----2----4--0h-||*--2--2--4----2----4--0h-*||---------------------|
A|-----0--0----0----0--0--||------0--0----0----0--0---||---------------------|
E|------------------------||--------------------------||---------------------|

e|------------------|------------------5--|------------------|
B|------------------|---------------------|------------------|
G|------------------|------------5h-6-----|------------------|
D|------------------|---------------------|------------------|
A|------------------|---------------------|------------------|
E|------------------|---------------------|------------------|



************************************

| h  Hammer-on
| *  repeat
| p  Pull-off
| b  Bend
| r  Release
| ~  Vibrato

************************************