Tablature guitare : AC/DC – Dirty Deeds Done Dirt Cheap

Dirty Deeds Done Dirt Cheap Tab by AC/DC
Tuning: Standard

[Main Riff]

e|-------------------------------------------|
B|----------------------------------3--------|
G|----------------------2-----------2--------|
D|--2--------5--2-------2--2--------0--2-----|
A|--2--------5--2-------0--2-----------2-----|
E|--0--------3--0----------0-----------0-----|

e|-------------------------------------------|
B|----------------------------------3--------|
G|----------------------2-----------2--------|
D|--2--------5--2-------2--2--------0--2-----|
A|--2--------5--2-------0--2-----------2-----|
E|--0--------3--0----------0-----------0-----|

e|-------------------------------------------|
B|----------------------------------3--------|
G|----------------------2-----------2--------|
D|--2--------5--2-------2--2--------0--2-----|
A|--2--------5--2-------0--2-----------2-----|
E|--0--------3--0----------0-----------0-----|

e|-------------------------------------------|
B|----------------------------------3--------|
G|----------------------2-----------2--------|
D|--2--------5--2-------2--2--------0--2-----|
A|--2--------5--2-------0--2-----------2-----|
E|--0--------3--0----------0-----------0-----|


[Riff 2]

e|---------------------------|
B|---------------------------|
G|---7--7/(9)-9--------------|
D|---7--7/(9)-9--------------|
A|---5--5/(7)-7--------------|
E|---------------------------|

e|---------------------------|
B|---------------------------|
G|---7--7/(9)-9--------------|
D|---7--7/(9)-9--------------|
A|---5--5/(7)-7--------------|
E|---------------------------|

e|---------------------------|
B|---------------------------|
G|---7--7/(9)-9--------------|
D|---7--7/(9)-9--------------|
A|---5--5/(7)-7--------------|
E|---------------------------|

e|---------------------------|
B|---------------------------|
G|---7--7/(9)-9--------------|
D|---7--7/(9)-9--------------|
A|---5--5/(7)-7--------------|
E|---------------------------|


[Chorus]

e|--------------3-------|--------------------|
B|--------------3-------|------------3-------|
G|--2--------2--0--2----|------------2-------|
D|--2--------2--0--2----|-2-------2--0--2----|
A|--0--------0--x--0----|-2-------2-----2----|
E|--------------3-------|-0-------0-----0----|

e|--------------3-------|--------------------|
B|--------------3-------|--------------------|
G|--2--------2--0--2----|--------------------|
D|--2--------2--0--2----|-2------------------|
A|--0--------0--x--0----|-2------------------|
E|--------------3-------|-0------------------|

e|---------------------------|
B|---------------------------|
G|---7--7/(9)-9--------------|
D|---7--7/(9)-9--------------|
A|---5--5/(7)-7--------------|
E|---------------------------|

e|---------------------------|
B|---------------------------|
G|---7--7/(9)-9--------------|
D|---7--7/(9)-9--------------|
A|---5--5/(7)-7--------------|
E|---------------------------|

e|---------------------------|
B|---------------------------|
G|---7--7/(9)-9--------------|
D|---7--7/(9)-9--------------|
A|---5--5/(7)-7--------------|
E|---------------------------|

e|---------------------------|
B|---------------------------|
G|---7--7/(9)-9--------------|
D|---7--7/(9)-9--------------|
A|---5--5/(7)-7--------------|
E|---------------------------|

e|--------------3-------|--------------------|
B|--------------3-------|------------3-------|
G|--2--------2--0--2----|------------2-------|
D|--2--------2--0--2----|-2-------2--0--2----|
A|--0--------0--x--0----|-2-------2-----2----|
E|--------------3-------|-0-------0-----0----|

e|--------------3-------|--------------------|
B|--------------3-------|--------------------|
G|--2--------2--0--2----|--------------------|
D|--2--------2--0--2----|-2------------------|
A|--0--------0--x--0----|-2------------------|
E|--------------3-------|-0------------------|


[Solo]

e|-------------------2~~~-2--------------7~~~--|
B|--3--3---------------------5--3~~~~3---------|
G|-------4~~~~~~~~-----------------------------|
D|---------------------------------------------|
A|---------------------------------------------|
E|---------------------------------------------|

e|------------------------|
B|--0xx-xx-xx-xx-xx-xx----|
G|------------------------|
D|------------------------|
A|------------------------|
E|------------------------|

e|--7h10p7-----------------------------------|
B|---------9p7h9p7---------------------7b----|
G|-----------------9p7h9p7--------7h9--------|
D|-------------------------9p7h9-------------|
A|-------------------------------------------|
E|-------------------------------------------|

e|-7-4-0-7-4-0-7-4-0-7-4-0-7-4-0-7-4-0--|all of this
B|--------------------------------------|is a tapping
G|--------------------------------------|solo until
D|--------------------------------------|I say "fini"
A|--------------------------------------|
E|e--------------------------------------|

e|-8-5-0-8-5-0-8-5-0-8-5-0-8-5-0-8-5-0--|
B|--------------------------------------|
G|--------------------------------------|
D|--------------------------------------|
A|--------------------------------------|
E|--------------------------------------|

e|-9-6-0-9-6-0-9-6-0-9-6-0-9-6-0-9-6-0--|
B|--------------------------------------|
G|--------------------------------------|
D|--------------------------------------|
A|--------------------------------------|
E|--------------------------------------|

e|-10-7-0-10-7-0-10-7-0-10-7-0-10-7-0--|
B|-------------------------------------|see the pattern, keep
G|-------------------------------------|doing this until
D|-------------------------------------|
A|-------------------------------------|
E|-------------------------------------|

"fini"

e|--17b(19)~~~~~~~~~~~~~~~~~~~~~~~~~~~---|
B|---------------------------------------|
G|---------------------------------------|
D|---------------------------------------|
A|---------------------------------------|
E|---------------------------------------|

e|---------------------------|
B|---------------------------|
G|---7--7/(9)-9--------------|
D|---7--7/(9)-9--------------|
A|---5--5/(7)-7--------------|
E|---------------------------|

e|---------------------------|
B|---------------------------|
G|---7--7/(9)-9--------------|
D|---7--7/(9)-9--------------|
A|---5--5/(7)-7--------------|
E|---------------------------|

e|---------------------------|
B|---------------------------|
G|---7--7/(9)-9--------------|
D|---7--7/(9)-9--------------|
A|---5--5/(7)-7--------------|
E|---------------------------|

e|---------------------------|
B|---------------------------|
G|---7--7/(9)-9--------------|
D|---7--7/(9)-9--------------|
A|---5--5/(7)-7--------------|
E|---------------------------|

e|--------------3-------|--------------------|
B|--------------3-------|------------3-------|
G|--2--------2--0--2----|------------2-------|
D|--2--------2--0--2----|-2-------2--0--2----|
A|--0--------0--x--0----|-2-------2-----2----|
E|--------------3-------|-0-------0-----0----|

e|--------------3-------|--------------------|
B|--------------3-------|--------------------|
G|--2--------2--0--2----|--------------------|
D|--2--------2--0--2----|-2------------------|
A|--0--------0--x--0----|-2------------------|
E|--------------3-------|-0------------------|

e|-------------------------------------------|
B|----------------------------------3--------|
G|----------------------2-----------2--------|
D|--2--------5--2-------2--2--------0--2-----|
A|--2--------5--2-------0--2-----------2-----|
E|--0--------3--0----------0-----------0-----|

e|-------------------------------------------|
B|----------------------------------3--------|
G|----------------------2-----------2--------|
D|--2--------5--2-------2--2--------0--2-----|
A|--2--------5--2-------0--2-----------2-----|
E|--0--------3--0----------0-----------0-----|

e|-------------------------------------------|
B|------------------------------------3------|
G|----------------------2-------------2------|
D|--2--------5--2-------2--2-------2--0--2---|
A|--2--------5--2-------0--2-------2-----2---|
E|--0--------3--0----------0-------0-----0---|

e|-------------------------------------------|
B|------------------------------------3------|
G|----------------------2-------------2------|
D|--2--------5--2-------2--2-------2--0--2---|
A|--2--------5--2-------0--2-------2-----2---|
E|--0--------3--0----------0-------0-----0---|

e|-------------------------------------------|
B|------------------------------------3------|
G|----------------------2-------------2------|
D|--2--------5--2-------2--2-------2--0--2---|
A|--2--------5--2-------0--2-------2-----2---|
E|--0--------3--0----------0-------0-----0---|

e|-------------------------------------------|
B|------------------------------------3------|
G|----------------------2-------------2------|
D|--2--------5--2-------2--2-------2--0--2---|
A|--2--------5--2-------0--2-------2-----2---|
E|--0--------3--0----------0-------0-----0---|
                                           arrrrrrgh!

***************************************

b-bend
h-hammer on
p-pull off
~-vibrato
/-slide up
(0)-ghost note
x-muted note

***************************************