Tablature guitare : 5 Seconds Of Summer – Voodoo Doll

Artist: 5 Seconds Of Summer
Song: Voodoo Doll  

Tabbed By Apanda 
 
Tuning: standard

[Intro / Verse]
e|---------------------------------------------------------------------------------------|
B|---------------------------------------------------------------------------------------|
G|-7-7-----------------------------------------------------------------------------------|
D|-7-7-----------------------------------------------------------------------------------|
A|-5-5---5-5-5--5-5--5-5-----------------------------------------------------------------|
E|-------2-2-2--3-3--5-5-----------------------------------------------------------------|

(repeat this until the pre-chorus (i like to add a slide down at the 12 at the first little pause)

[Pre-Chorus]
e|---------------------------------------------------------------------------------------|
B|---------------------------------------------------------------------------------------|
G|---------------------------------------------------------------------------------------|
D|--5---7--5--7-7-7-7-7-7-7-7-7-7--------------------------------------------------------|
A|--5---7--5--7-7-7-7-7-7-7-7-7-7--------------------------------------------------------|
E|--3---5--3--5-5-5-5-5-5-5-5-5-5--------------------------------------------------------|
                  
(let each chord ring out until the build up)

[Chorus] 
e|---------------------------------------------------------------------------------------|
B|---------------------------------------------------------------------------------------|
G|-7-7-----------------------------------------------------------------------------------|
D|-7-7--7-7--5-5--7-7--------------------------------------------------------------------|
A|-5-5--7-7--5-5--7-7--------------------------------------------------------------------|
E|------5-5--3-3--5-5--------------------------------------------------------------------|

[Chorus 2nd part] 
( "and it hurts in my head and my heart...." )
e|-------------------------0-0-----------------------------------------------------------|
B|-------------------------0-0-----------------------------------------------------------|
G|-------------------------4-4-----------------------------------------------------------|
D|-9-9-9--9-9-9--7-7-7-----4-4--------3-3-3-3-3------------------------------------------|
A|-9-9-9--9-9-9--7-7-7-----2-2--------3-3-3-3-3------------------------------------------|
E|-7-7-7--6-6-6--5-5-5----------------5-5-5-5-5------------------------------------------|
                                      * * * * *
[Pre-Verse Part]
Guitar 1
e|---------------------------------------------------------------------------------------|
B|---------------------------------------------------------------------------------------|
G|-------14-11-12-11----11-------14------14-16-14----------------------------------------|
D|-12-12-------------12--------12-----12-------------------------------------------------|
A|---------------------------------------------------------------------------------------|
E|---------------------------------------------------------------------------------------|

Guitar 2
e|---------------------------------------------------------------------------------------|
B|---------------------------------------------------------------------------------------|
G|-7-7-----------------------------------------------------------------------------------|
D|-7-7-----------------------------------------------------------------------------------|
A|-5-5---5-5-5--5-5--5-5-----------------------------------------------------------------|
E|-------2-2-2--3-3--5-5-----------------------------------------------------------------|


[Intro / Verse]
e|---------------------------------------------------------------------------------------|
B|---------------------------------------------------------------------------------------|
G|-7-7-----------------------------------------------------------------------------------|
D|-7-7-----------------------------------------------------------------------------------|
A|-5-5---5-5-5--5-5--5-5-----------------------------------------------------------------|
E|-------2-2-2--3-3--5-5-----------------------------------------------------------------|

[Pre-Chorus]
e|---------------------------------------------------------------------------------------|
B|---------------------------------------------------------------------------------------|
G|---------------------------------------------------------------------------------------|
D|--5---7--5--7-7-7-7-7-7-7-7-7-7--------------------------------------------------------|
A|--5---7--5--7-7-7-7-7-7-7-7-7-7--------------------------------------------------------|
E|--3---5--3--5-5-5-5-5-5-5-5-5-5--------------------------------------------------------|
              * * * * * * *    

[Chorus]
e|---------------------------------------------------------------------------------------|
B|---------------------------------------------------------------------------------------|
G|-7-7-----------------------------------------------------------------------------------|
D|-7-7--7-7--5-5--7-7--------------------------------------------------------------------|
A|-5-5--7-7--5-5--7-7--------------------------------------------------------------------|
E|------5-5--3-3--5-5--------------------------------------------------------------------|

[Chorus 2nd part] 
("and it hurts in my head and my heart....")
e|-------------------------0-0-----------------------------------------------------------|
B|-------------------------0-0-----------------------------------------------------------|
G|-------------------------4-4-----------------------------------------------------------|
D|-9-9-9--9-9-9--7-7-7-----4-4--------3-3-3-3-3------------------------------------------|
A|-9-9-9--9-9-9--7-7-7-----2-2--------3-3-3-3-3------------------------------------------|
E|-7-7-7--6-6-6--5-5-5----------------5-5-5-5-5------------------------------------------|
              
[Pre-bridge]
Guitar 1
e|---------------------------------------------------------------------------------------|
B|---------------------------------------------------------------------------------------|
G|-14-14-14------14/16\14----------------------------------------------------------------|
D|-12-12-12------------------------------------------------------------------------------|
A|---------------------------------------------------------------------------------------|
E|---------------------------------------------------------------------------------------|

Guitar 2
e|---------------------------------------------------------------------------------------|
B|---------------------------------------------------------------------------------------|
G|-7-7-----------------------------------------------------------------------------------|
D|-7-7-----------------------------------------------------------------------------------|
A|-5-5---5-5-5--5-5--5-5-----------------------------------------------------------------|
E|-------2-2-2--3-3--5-5-----------------------------------------------------------------|

[Bridge]
e|---------------------------------------------------------------------------------------|
B|---------------------------------------------------------------------------------------|
G|--------------------------------------------------------------------------7-7----------|
D|-5-5-5-5-5-5-5-5----7-7-7-7-7-7-7----5-5-5-5-5-5-5-5----7-7-7-7-7-7-7-----7-7---7-7-7--|
A|-5-5-5-5-5-5-5-5----7-7-7-7-7-7-7----5-5-5-5-5-5-5-5----7-7-7-7-7-7-7-----5-5---7-7-7--|
E|-3-3-3-3-3-3-3-3----5-5-5-5-5-5-5----3-3-3-3-3-3-3-3----5-5-5-5-5-5-5-----------5-5-5--|
       
[Chorus]
e|---------------------------------------------------------------------------------------|
B|---------------------------------------------------------------------------------------|
G|-7-7-----------------------------------------------------------------------------------|
D|-7-7--7-7--5-5--7-7--------------------------------------------------------------------|
A|-5-5--7-7--5-5--7-7--------------------------------------------------------------------|
E|------5-5--3-3--5-5--------------------------------------------------------------------|

[Chorus 2nd part] 
("and it hurts in my head and my heart....")
e|-------------------------0-0-----------------------------------------------------------|
B|-------------------------0-0-----------------------------------------------------------|
G|-------------------------4-4-----------------------------------------------------------|
D|-9-9-9--9-9-9--7-7-7-----4-4--------3-3-3-3-3------------------------------------------|
A|-9-9-9--9-9-9--7-7-7-----2-2--------3-3-3-3-3------------------------------------------|
E|-7-7-7--6-6-6--5-5-5----------------5-5-5-5-5------------------------------------------|
                                      
[Pre-Verse Part]
Guitar 1
e|---------------------------------------------------------------------------------------|
B|---------------------------------------------------------------------------------------|
G|-------14-11-12-11----11-------14------14-16-14----------------------------------------|
D|-12-12-------------12--------12-----12-------------------------------------------------|
A|---------------------------------------------------------------------------------------|
E|---------------------------------------------------------------------------------------|

Guitar 2
e|---------------------------------------------------------------------------------------|
B|---------------------------------------------------------------------------------------|
G|-7-7-----------------------------------------------------------------------------------|
D|-7-7-----------------------------------------------------------------------------------|
A|-5-5---5-5-5--5-5--5-5-----------------------------------------------------------------|
E|-------2-2-2--3-3--5-5-----------------------------------------------------------------|

[Outro] 
e|---------------------------------------------------------------------------------------|
B|---------------------------------------------------------------------------------------|
G|-7-7-----------------------------------------------------------------------------------|
D|-7-7-----------------------------------------------------------------------------------|
A|-5-5---5-5-5--5-5--5-5-----------------------------------------------------------------|
E|-------2-2-2--3-3--5-5-----------------------------------------------------------------|



************************************

| /  Slide up
| \  Slide down
| *  Palm Mute

************************************

The Guitar 1 part after the chorus goes,

e|----5-2-3-2-0------5-2-5-7-5----
B|--3-----------3--3--------------
G|--------------------------------
D|--------------------------------
A|--------------------------------
E|--------------------------------

those are essentially the same notes buddy youre just playing them lower on the fretboard you can do the same thing where i tabbed them except where you used the open string you could just use the 9 on the G string

https://tabs.ultimate-guitar.com/0-9/5_seconds_of_summer/voodoo_doll_tab.htm