Tablature guitare : 5 Seconds Of Summer – Hey Everybody

-----------------------------------------------------------------------------
                           HEY EVERYBODY! - 5 Seconds Of Summer
-----------------------------------------------------------------------------
Tuning: Standard (EADGBe)

Guitar 1 - Michael Clifford
Guitar 2 - Luke Hemmings

||o---o|| - repeat sign, play everything in between these bars again
x - mute strings

Very easy song to tab, not many guitar parts going on. Great for beginner players, enjoy!

Check out my guitar cover on YouTube!: https://www.youtube.com/watch?v=dl3FJDeo3zw

[Intro/Verse]

Guitar 1 (acoustic), no Guitar 2
e||---------------8x-|--------------||-----------------------------------------|
B||o-----------------|-------------o||-----------------------------------------|
G||------------------|-7------------||----------------------------(pause)------|
D||------6-----------|-7--x8-7------||-----6----------------6------------------|
A||o-------7---------|-5-----7--x8-o||-------7----------------7----------------|
E||--0-0-----0-0-4-5-|-------5------||-0-0-----0-0-4-5--0-0--------------------|


[Chorus]

Guitar 1 (distortion)                                                       V fast mutes
e|------------------------------------------12------10---------------------------|
B|---------15-------14------12--------------12--x16-10--x16-14------12-----------|
G|-13------14-------14------13--------------13------11------14------13-----------|
D|-----x16-----x16------x16-----x12-(pause)---------------------x16-----x14-xxxx-|
A|-11------12-------12------11------------------------------12------11------xxxx-|
E|--------------------------------------------------------------------------xxxx-|

Guitar 2
e|-----------------------------------------------------------------|
B|-----------------------------------------------------------------|
G|-9------7----------------------------9------7--------------------|
D|-9--x16-7--x16-7------2------x-x-x-x-9--x16-7--x16-7------2------|
A|-7------5------7--x16-2--x12-x-x-x-x-7------5------7--x16-2--x16-|
E|-0-------------5------0------x-x-x-x-0-------------5------0------|

Repeat:
Verse - pause before playing
Chorus - for Guitar 1, don't mute and just play the last chord 2 more times


[Bridge]

Guitar 1 (acoustic), no Guitar 2
e|-----------------------------------------------------------------|
B|-----------------------------------------------------------------|
G|---------------9------7-------------------------(pause)----------|
D|---(silence)---9--x16-7--x16-7----------.------------------------|
A|---------------7------5------7--x16-----2------------------------|
E|-----------------------------5------00000------------------------|


[Chorus]

Guitar 1 (distortion)                                                       V fast mutes
e|------------------------------------------12------10---------------------------|
B|---------15-------14------12--------------12--x16-10--x16-14------12-----------|
G|-13------14-------14------13--------------13------11------14------13-----------|
D|-----x16-----x16------x16-----x12-(pause)---------------------x16-----x14-xxxx-|
A|-11------12-------12------11------------------------------12------11------xxxx-|
E|--------------------------------------------------------------------------xxxx-|

Guitar 2
e|-----------------------------------------------------------------|
B|-----------------------------------------------------------------|
G|-9------7----------------------------9------7--------------------|
D|-9--x16-7--x16-7------2------x-x-x-x-9--x16-7--x16-7------2------|
A|-7------5------7--x16-2--x12-x-x-x-x-7------5------7--x16-2--x16-|
E|-0-------------5------0------x-x-x-x-0-------------5------0------|



Guitar 1 (distortion)                                                       V fast mutes
e|------------------------------------------12------10---------------------------|
B|---------15-------14------12--------------12--x16-10--x16-14------12-----------|
G|-13------14-------14------13--------------13------11------14------13-----------|
D|-----x16-----x16------x16-----x12-(pause)---------------------x16-----x14-xxxx-|
A|-11------12-------12------11------------------------------12------11------xxxx-|
E|--------------------------------------------------------------------------xxxx-|

Guitar 2
e|-----------------------------------------------------------------|
B|-----------------------------------------------------------------|
G|-9------7----------------------------9------7--------------------|
D|-9--x16-7--x16-7------2------x-x-x-x-9--x16-7--x16-7------2------|
A|-7------5------7--x16-2--x12-x-x-x-x-7------5------7--x16-2--x16-|
E|-0-------------5------0------x-x-x-x-0-------------5------0------|



************************************

| x  Dead note

************************************

https://tabs.ultimate-guitar.com/0-9/5_seconds_of_summer/hey_everybody_tab.htm