Tablature guitare : 5 Seconds Of Summer – Don’t Stop

Hi guys. First tab so please don't judge. I really liked this song when i heard it and even though 
i'm more of a green day and rise against fan, i still think this is fun to play along with, especially
for beginners. 

So enjoy.

P.S there is no tab on ultimate guitar for this song, only chords, so if somethings wrong please tell me.
Also, all of this tab, except for the different chorus has only the rhythm guitar parts, but there is a
lead so have fun figuring that out...

DRUM INTRO

[Verse]

e|----------------------------|            e|-------------------------------|
B|----------------------------|            B|-------------------------------|
G|----88888-------------------| x8 then    G|-------------------------------|
D|----88888-555-6666----------|            D|-8888888888888888888888888888--|
A|----66666-555-6666-5h6-5h6--|            A|-8888888888888888888888888888--|
E|----------333-4444----------|            E|-6666666666666666666666666666--|
      ***** *** **** 


[CHORUS] (very repetitive) 

e|------------------------------------------------------------------------|
B|------------------------------------------------------------------------|
G|8888888888888888------------------------------------8888888888888888----|
D|8888888888888888-6666666666666666-88888888-66666666-8888888888888888----| x2
A|6666666666666666-6666666666666666-88888888-66666666-6666666666666666----|
E|-----------------4444444444444444-66666666-44444444---------------------|

[Verse 2]

e|----------------------------|            e|-------------------------------|
B|----------------------------|            B|-------------------------------|
G|----88888-------------------| x6 then    G|-------------------------------|
D|----88888-555-6666----------|            D|-8888888888888888888888888888--|
A|----66666-555-6666-5h6-5h6--|            A|-8888888888888888888888888888--|
E|----------333-4444----------|            E|-6666666666666666666666666666--|
      ***** *** ****                          ****************************

Repeat CHORUS

[Bridge]

e|---------------------------------------------------------------------|
B|---------------------------------------------------------------------|
G|---------------------------------------------------------------------|
D|-5555555555555555-6666666666666666-5555555555555555-8888888888888888-|
A|-5555555555555555-6666666666666666-5555555555555555-8888888888888888-|
E|-3333333333333333-4444444444444444-3333333333333333-6666666666666666-|

DIFFERENT CHORUS (Rhythm and lead)

RHYTHM PART

e|------------------------------------------------------------------------|
B|------------------------------------------------------------------------|
G|8888888888888888------------------------------------8888888888888888----|
D|8888888888888888-6666666666666666-88888888-66666666-8888888888888888----|x1
A|6666666666666666-6666666666666666-88888888-66666666-6666666666666666----|
E|-----------------4444444444444444-66666666-44444444---------------------|
  **************** **************** ******** ******** ****************

LEAD (a little hard to pick up,and once again may be wrong, but it is more or less this repeated)

e|---------------------|
B|--8----8----8--8-8---|
G|-8-8--8-8--8-8--8-8--|
D|---------------------| x4 then...
A|---------------------|
E|---------------------|

...CHORUS (Lead part above can go over this but personally ever tried so up to you.)

e|-------------------------------------------------------------------------|
B|-------------------------------------------------------------------------|
G|8888888888888888------------------------------------8888888888888888/----|
D|8888888888888888-6666666666666666-88888888-66666666-8888888888888888/----| x3
A|6666666666666666-6666666666666666-88888888-66666666-6666666666666666/----|
E|-----------------4444444444444444-66666666-44444444----------------------|


Thanks guys. Hope this helps. The strumming pattern can easily be adapted to your taste, but either way it
sounds good.


************************************

Key: * = below a note or chord means palm muted.
     h = hit a note
     / = slide

************************************

Thanks so much for this Tab. Its perfect except I think...

e|---------------------|
B|--8----8----8--8-8---|
G|-8-8--8-8--8-8--8-8--|
D|---------------------| x4 then...
A|---------------------|
E|---------------------|

should be

e|---------------------|
B|--8----8----8--9-8---|
G|-8-8--8-8--8-8--8-8--|
D|---------------------| x4 then...
A|---------------------|
E|---------------------|

https://tabs.ultimate-guitar.com/0-9/5_seconds_of_summer/dont_stop_ver2_tab.htm