Tablature guitare : 5 Seconds Of Summer – Amnesia

-------------------------------------------------------------------------------
                         AMNESIA - 5 Seconds of Summer
-------------------------------------------------------------------------------
Tabbed by: Kayla
  
Listen here: https://www.youtube.com/watch?v=InmqbR5-ZEI
(obvs not my video, credit to the owner)

Tuning: EADGBe
        No capo


[Verse]

e|--------2-------2-------2h3---------|
B|----3-------3-------3---------3---3-|
G|--2---2---2---2---0---0-----0---0---| x4
D|------------------------------------|
A|------------------------------------|
E|------------------------------------|

e|-------2-3-2------------2-------2---|
B|-----3-------3------3-------3-------|
G|---2-----------2------0---0---0-----|
D|------------------------------------|
A|------------------0-----------------|
E|-0----------------------------------|

e|--------2-------2-------2h3---------|
B|----3-------3-------3---------3---3-|
G|--2---2---2---2---0---0-----0---0---| x2
D|------------------------------------|
A|------------------------------------|
E|------------------------------------|


[Pre-Chorus]

e|-------2-3-2------------2-------2----------2-3-2------------2-------------------------|
B|-----3-------3------3-------3------------3-------3------3-------3---3---3---3---3---3-|
G|---2-----------2------0---0---0--------2-----------2------0---0---0---0---0---0---0---|
D|--------------------------------------------------------------------------------------|
A|------------------0-----------------------------------0-------------------------------|
E|-0-----------------------------------0------------------------------------------------|

(I like to fade into a D here but that's just me)


[Chorus]

(It's just chords during it)

D A Bm G


[Verse]

e|--------2-------2-------2h3---------|
B|----3-------3-------3---------3---3-|
G|--2---2---2---2---0---0-----0---0---| x4
D|------------------------------------|
A|------------------------------------|
E|------------------------------------|

e|-------2-3-2------------2-------2---|
B|-----3-------3------3-------3-------|
G|---2-----------2------0---0---0-----|
D|------------------------------------|
A|------------------0-----------------|
E|-0----------------------------------|

e|--------2-------2-------2h3---------|
B|----3-------3-------3---------3---3-|
G|--2---2---2---2---0---0-----0---0---| x2
D|------------------------------------|
A|------------------------------------|
E|------------------------------------|


[Pre-Chorus]

e|-------2-3-2------------2-------2----------2-3-2------------2-------------------------|
B|-----3-------3------3-------3------------3-------3------3-------3---3---3--3---3---3--|
G|---2-----------2------0---0---0--------2-----------2------0---0---0---0---0--0---0----|
D|--------------------------------------------------------------------------------------|
A|------------------0-----------------------------------0-------------------------------|
E|-0-----------------------------------0------------------------------------------------|


[Chorus]

D A Bm G

[Bridge] 
(also just chords) 

A Bm G D A Bm G

[Chorus]

D A Bm G

[Ending Verse]  
(aka when the waterworks start)

e|--------2-------2-------2h3---------|
B|----3-------3-------3---------3---3-|
G|--2---2---2---2---0---0-----0---0---| x4
D|------------------------------------|
A|------------------------------------|
E|------------------------------------|


************************************

| h   hammer-on

************************************

https://tabs.ultimate-guitar.com/0-9/5_seconds_of_summer/amnesia_ver2_tab.htm