Tablature guitare : 2NE1 – Lonely

I CORRECTED THIS SONG TO THE MOST CORRECT VERSION CUZ SOMEONE UPLOADED IT BUT IT WAS 
CONFUEING SO I CORRECTED
AND REUPLOADED SO THIS IS IT
TAB AND CHORDS ARE PLAYED WITH:
CAPO ON 4TH

  C                  E or E7
e|-----------------|-----------------|
B|-1---------1-----|-3---------3-----|
G|-------0-------0-|-------0-------0-|
D|-----2-------2---|-----------------|
A|-3-------3-------|-----2-------2---|
E|-----------------|-0-------0-------|

  Am                         G
e|----------------3-----|----------------|-----------------|
B|-1---------0h1-----1--|-0--------------|-0---1---3-------|
G|-------2--------------|-------0--------|-0---0---0-------|
D|-----2----------------|-----0----------|-----------------|
A|-0-------0------------|----------------|-----------------|
E|----------------------|-3-------3------|-3---3---3-------|

  C(add9)                    E or E7
e|-------------0--------|------------0---------|
B|-3--------------------|-3--------------------|
G|-------0----------0---|-------0---------0----|
D|-----2----------2-----|----------------------|
A|-3-------3---3------3-|-----2----------2-----|
E|----------------------|-0-------0--0-------0-|

  Am                       G
e|----------------3-----|----------------|-----------------|
B|-1---------0h1-----1--|-0--------------|-0---1---3-------|
G|-------2--------------|-------0--------|-0---0---0-------|
D|-----2----------------|-----0----------|-----------------|
A|-0-------0------------|----------------|-----------------|
E|----------------------|-3-------3------|-3---3---3-------|

[JUST FOLLOW THIS CHORDS FOR THE WHOLE CHORDS PART]
C - E - Am - G

[AND TO FINISH THE CHORDS PART TO GET INTO THE TAB AGAIN JUST PLAY THIS]
C - E - Am - Gsus - Asus

https://tabs.ultimate-guitar.com/0-9/2ne1/lonely_ver3_tab.htm