Tablature guitare : Coldplay – Adventure Of A Lifetime

Author
Difficulty
Tuning
intermediate
E A D G B E
I did a video lesson of this song, it can be found over here:


Chords used for the entire song:
Dm - G - Am - Am  (every chord displayed gets played one bar)
-5-    -3-    -5-
-5-    -3-    -5- 
-6-    -4-    -5-
-7-    -5-    -7-
-7-    -5-    -7-
-5-    -3-    -5-

or the open chords:
-1-    -3-    -0-
-3-    -3-    -1- 
-2-    -0-    -2-
-0-    -0-    -2-
---    -2-    -0-
---    -3-    ---


[Guitar theme]
         
e|--17-12-||---17-12----12------------------------17-12-|
B|--------||---------15----15-13------------------------|
G|--------||---------------------14-12-14---12----------|
D|--------||--------------------------------------------|
A|--------||--------------------------------------------|
E|--------||--------------------------------------------|
  
e|--17-12----12-----------------------15-12-|
B|--------15----15-13-----------------------|
G|--------------------14-12-14---12---------| 
D|------------------------------------------|
A|------------------------------------------|
E|------------------------------------------|
  
e|--15-12----12----------------------15-12-|--15-12----12-------------19-20---17-12--||
B|--------15----15-13----------------------|--------15----15-13----------------------||
G|--------------------14-12-14---12--------|--------------------14-12----------------||x2
D|-----------------------------------------|-----------------------------------------||
A|-----------------------------------------|-----------------------------------------||
E|-----------------------------------------|-----------------------------------------||


[Verses]
(check out the video for the exact strumming: https://youtu.be/M5dtVBFaEFk)
    
e|---------------------------------17------|
B|--17---17-17---15-15---17---15-----------|
G|--17---17-17---17-17---17---17-----------|
D|-----------------------------------------|
A|-----------------------------------------|
E|-----------------------------------------|

e|-----------------------------------------------|
B|--17--17-17---15-15-15-15-15-15-15-15-15-15-15-|
G|--17--17-17---16-16-16-16-16-16-16-16-16-16-16-|
D|-----------------------------------------------|
A|-----------------------------------------------|
E|-----------------------------------------------|

e|--------------------------------17-----|
B|--17--17-17---15-15---17---15----------|
G|--17--17-17---17-17---17---17----------|
D|---------------------------------------|
A|---------------------------------------|
E|---------------------------------------|

e|-----------------------------------------------|
B|--17--17-17---15-15-15-15-15-15-15-15-15-15-15-|
G|--17--17-17---16-16-16-16-16-16-16-16-16-16-16-|x2
D|-----------------------------------------------|
A|-----------------------------------------------|
E|-----------------------------------------------|


[Ending theme]
  
e|---13---13---13---13---12--|-------------------------|-----------------------|
B|---------------------------|--15--15--15--15-13--15--|--/17----------13--15--|
G|---------------------------|-------------------------|-------14--14----------|
D|---------------------------|-------------------------|-----------------------|
A|---------------------------|-------------------------|-----------------------|
E|---------------------------|-------------------------|-----------------------|
  
e|----------------|
B|--/17-----------|
G|-------14--14---|x2
D|----------------|
A|----------------|
E|----------------|

***********************************
| /   slideup
***********************************

https://tabs.ultimate-guitar.com/c/coldplay/adventure_of_a_lifetime_tab.htm