Tablature guitare : Bon Jovi – Runaway

[Intro]    A A G G :|| 3x                 1-12
[Verse]    A A G G E F-G A A             13-20
           A A G G E E-G A A             21-28
           E G A A D D C G               29-36
[Chorus]   A A G G C E-G A A             37-44
           G E A A                       45-48
[Verse 2]  [Verse 1]                     49-72
[Chorus 2] A A G G C E-G A A             73-80
           G E NC A A A A                81-87  (84:delaytime 394,7ms
[Solo]     A A C D A A C G               88-95         decay 4)
           A A C D A A C G               96-104
[Verse 3   E G A A D D C G              105-112
[Chorus]   ||:A A G G C E-G A A :||     113-144
           A A G G Fade out             145-148

[Intro]                      press                        pick
         A           G       w.b.        A          G    slide
   1                                     9
e|------------------------------------------------------------------|
B|------------------------------------------------------------------|
G|-----------------------------5------------------------------------|
D|------------------------------\-----------------------------------|
A|-------7-----------5-----------\-------7----------5------X\-------|
E|---0---5-------0---3---------------0---5------0---3------X\------0|

[1.Verse]    15.
  A            G          E       F      G       A
|-------------------------------------------------------------------|
|-------------------------------------------------------------------|
|-------------------------------------------------------------------|
|-7===7--------5-------5----------3---3--5----5--7------------------|
|-5===5-----0--3-------3--0----0--1---1--3----3--5------------------|

   21.                                                 28.
   A                   E       G      A
e|-------------------------------------------------------------------|
B|-------------------------------------------------------------------|
G|-------------------------------------------------------------------|
D|-------------------------------------------------------5--5-5------|
A|-7===7-----5===5-----2===2---5-5--------2--3-2---------5--5-5------|
E|-5===5-----3===3-----0===0---3-3---5--5--------3--5--5-------------|

                                              35.           [Chorus]
      let ring         l.r.       l.r.            pick
   E            G   A         D               C   slide A
e|-12--------------5----------10-------------------------------------|
B|-----12-------------5---------10-----10----------------------------|
G|-------12--------------5----------10--------12---------------------|
D|------------12------------7----------------------------------------|
A|-------------------------------------------------X\---7===7--------|
E|-------------------------------------------------X\---5===5--------|

    P.M.    G                      C             E        G
e|-------------------------------------------------------------------|
B|-------------------------------------------------------------------|
G|-------------------------------------------------------------------|
D|--------------------------------------------------__---------------|
A|---------------------------------3_--_3--3--3--2--  --2---_--_-----|
E|-3-3-3-3-3-3-3-3---3-3-3-3-3-3-3-------------------------3----3----|

                                                  43.
          A                                 G        E            A
e|-------------------------------------------------------------------|
B|-------------------------------------------------------------------|
G|-------------------------------------------------------------------|
D|-------------------------------------------------------------------|
A|--------7-5--7------5-7--7-------------------------2--2------------|
E|--5-----5-3--5------3-5--5--17--5---3-3-3-3-3-3-3--0--0------------|

 [2 Verse] (49.)
    A            G       E     F   G       A           p.m.
e|---------------3----3----------------------------------------------|
B|---------------3----3----------------------------------------------|
G|---------------7----7----------------------------------------------|
D|---------------5----5----------------------------------------------|
A|--7------7-----5----5---2----3---5----------2--3----------5--5--5--|
E|--5------5-----3----3---0----1---3-------5-------3--5--5--5--5--5--|

    57.
    A            G       E     F   G       A           p.m.
e|---------------3----3----------------------------------------------|
B|---------------3----3----------------------------------------------|
G|---------------7----7----------------------------------------------|
D|---------------5----5----------------------------------------------|
A|--7------7-----5----5---2----2---5-5-------2-3-2----------5--5--5--|
E|--5------5-----3----3---0----0---3-3---5-5-------3--5--5--5--5--5--|

                                                    72.
    65.                                     press   pick
    E   l.r.    G      A              D      w.b.   slide A
e|--12--------------5--------5----10----10---10----------------------|
B|------12-------------5-------------10------------------------------|
G|---------12-------------5---------------------12-------------------|
D|-------------12-------------------------------10-------------------|
A|---------------------------------------------------X\---7--7-------|
E|---------------------------------------------------X\---5--5-------|

     p.m.    G                       C          E   G
e|-------------------------------------------------------------------|
B|-------------------------------------------------------------------|
G|-------------------------------------------------------------------|
D|-------------------------------------------------------------------|
A|-----------------------------------3----3-3-3-2--2-----------------|
E|--3-3-3-3-3-3-3-3-3-3-3-3-3-3-3-3--------------------3--3----------|

 79.   A                  ---  ----------------------------------------|  slide   G  p.m.  E
e|---------------------------------------------------------------------|
B|---------------------------------------------------------------------|
G|---------------------------------------------------------------------|
D|---------------------------------------------------------------------|
A|-7---7-5---7----5--7---7--------------------------2------------------|
E|-5---5-3---5----3--5---5---17--5-3-3-3-3-3-3-3-3--0------------------|

 83.                                          89.
     A                         l.r.      A
e|-------------------------------------------------------------------|
B|-----------------------------5---5-----5---8-----------------------|
G|--/7---/7--/7----/7---/7--/7----/7-------------7--7--5---5--7--5--7|
D|-------------------------------------------------------7-----------|
A|-------------------------------------------------------------------|
E|-------------------------------------------------------------------|

                                            92.             1/4
               C                       D                  A bend
e|------------\------------------------------------------------------|
B|---5--8---7--\7--5--7--5----------------------------------5-5-2-5--|
G|/7-------/---------------7---5--3--4-------------------------------|
D|-------------------------------------------------------------------|
A|-------------------------------------5-5-5--3-5--3--3--------------|
E|------------------------------------------------------5-3----------|

                                                    95.
                                        C                          G
e|-------------------------------------------------------10-------10-|
B|------------------12--15----12-12-12-12-12-12-12-10----10-12-12-12-|
G|17--17--14--9--12--------14-------------------------12-------------|
D|-------------------------------------------------------------------|
A|-------------------------------------------------------------------|
E|-------------------------------------------------------------------|

                                              sl                sl
                                  A           --                --
e|10------------15---15--------15-15---------------------------------|
B|12-10---------15---15-15-15--15-15-15--13--------------------------|
G|------12--4--/----/-----------------------14--2---0--2--5--2--2--5-|
D|-------------------------------------------------------------------|
A|-------------------------------------------------------------------|
E|-------------------------------------------------------------------|

  98.    sl                          sl
         -- C                        --   D
e|-------------------------------------------------------------------|
B|-------------------8--10-13--10--10-13--15--13--13-15-17--X--15-17-|
G|9--5--5--9--12--9--------------\--------------\--------------------|
D|--------------------------------\--------------\-------------------|
A|-------------------------------------------------------------------|
E|-------------------------------------------------------------------|

                  A                                hp        C
e|-----------17----------------17-19-20-19-17----17-19-17----17-19-20|
B|-20-8--20-----20--20--20--20----------------20----------20---------|
G|-------------------------/-----------------------------------------|
D|-------------------------------------------------------------------|
A|-------------------------------------------------------------------|
E|-------------------------------------------------------------------|

        103.
                                          G
e|19-17----17-----17-------------------------------------------------|
B|------20---20-17--20-17---17---------------------------------------|
G|------------------------19--19191917----17-------------------------|
D|------------------------------------1917--1917191719--19-----------|
A|-------------------------------------------------------------------|
E|-------------------------------------------------------------------|

************************************

| \  Slide down
| /  Slide up

************************************

|-------------------------------------------------------------------|
|-------------------------------------------------------------------|
|-------------------------------------------------------------------|
|-------------------------------------------------------5--5-5------|
|-7===7-----5===5-----2===2---5-5--------2--3-2---------5--5-5------|
|-5===5-----3===3-----0===0---3-3---5--5--------3--5--5-------------|
{ }
the last part is one string up!

---------
---------
-5---5-5-
-5---5-5-
---------
---------

https://tabs.ultimate-guitar.com/b/bon_jovi/runaway_ver2_tab.htm