Tablature guitare : Blink-182 – The Rock Show

Blink-182 The Rock Show Tab

 

-------------------------------------------------------------------------------
                        The Rock Show - Blink 182
-------------------------------------------------------------------------------
Tabbed by: Fabio-BlenderBR
 - Please rate and send me your feedback - 

[Intro]

e|-------------------------------------------------------------|
B|-------------------------------------------------------------|
G|-------------------------------------------------------------|
D|-----2---0----------------------2---0------------------------|  2x
A|-0-0---0---0-0-0-4-5-4-0----0-0---0---0-0-0-4-7-4-0----------|
E|-------------------------------------------------------------|

e|------------------------|
B|------------------------|
G|------------------------|
D|------------------------|
A|--7777777777------------|
E|--5555555555------------|
P.M ----------|


[Verse]
(Hanging out behind the club on the weekend...)

e|------------------------------------------------|
B|------------------------------------------------|
G|------------7----------9------------------------|
D|--7---------7-77777777-9-99999999---------------|
A|--7-7777777-5-55555555-7-77777777---------------| 2x
E|--5-5555555-------------------------------------|
P.M   -------   --------   --------| 


[Instrumental]

e|-------------------------------------------------------------|
B|-------------------------------------------------------------|
G|-------------------------------------------------------------|
D|-----2---0----------------------2---0------------------------|  2x
A|-0-0---0---0-0-0-4-5-4-0----0-0---0---0-0-0-4-7-4-0----------|
E|-------------------------------------------------------------|

(She's getting kicked out of school cause she's failing...)

e|--------------------------------------------|
B|--------------------------------------------|
G|--------------------------------------------|
D|------NO-GUITAR-----------------------------|
A|--------------------------------------------|
E|--------------------------------------------|


[Chorus]
(Because I fell in love with the girl at the rock show...)

e|------------------|
B|------------------|
G|------------7-----|
D|--7-7-7--4--7-----|
A|--7-7-7--4--5-----|  3x
E|--5-5-5--2--------|

(Everything's better when she's around...)

e|-----------------------------------------------|
B|-----------------------------------------------|
G|-999999-777777-999999-777777-999999-7-6--------|
D|-999999-777777-999999-777777-999999-7-6--------|
A|-777777-555555-777777-555555-777777-5-4--------|
E|-----------------------------------------------|
P.M --------------------------------|


[Instrumental]

e|-------------------------------------------------------------|
B|-------------------------------------------------------------|
G|-------------------------------------------------------------|
D|-----2---0----------------------2---0------------------------|  2x
A|-0-0---0---0-0-0-4-5-4-0----0-0---0---0-0-0-4-7-4-0----------|
E|-------------------------------------------------------------|


[Verse]
(When we said we were gonna move to Vegas...)

e|------------------------------------------------|
B|------------------------------------------------|
G|------------7----------9------------------------|
D|--7---------7-77777777-9-99999999---------------|
A|--7-7777777-5-55555555-7-77777777---------------| 2x
E|--5-5555555-------------------------------------|
P.M   -------   --------   --------| 


[Chorus]

(Because I fell in love with the girl at the rock show...)

e|------------------|
B|------------------|
G|------------7-----|
D|--7-7-7--4--7-----|
A|--7-7-7--4--5-----|  3x
E|--5-5-5--2--------|

(Everything's better when she's around...)

e|-----------------------------------------------|
B|-----------------------------------------------|
G|-999999-777777-999999-777777-999999-7-6--------|
D|-999999-777777-999999-777777-999999-7-6--------|
A|-777777-555555-777777-555555-777777-5-4--------|
E|-----------------------------------------------|
P.M --------------------------------|


[Bridge]
(Black and white picture of her on my wall...)

e|---------------------|      e|---------------------|
B|-2----2--3--2--------|      B|---2--3--2-----------|
G|--2----2--2--2-------|      G|----2--2--2----------|
D|---------------------|      D|---------------------|
A|---------------------| 1x   A|---------------------| 7x
E|---------------------|      E|---------------------|


[Chorus]

(Because I fell in love with the girl at the rock show...)

e|------------------|
B|------------------|
G|------------7-----|
D|--7-7-7--4--7-----|
A|--7-7-7--4--5-----|  3x
E|--5-5-5--2--------|

(Everything's better when she's around...)

e|-----------------------------------------------|
B|-----------------------------------------------|
G|-999999-777777-999999-777777-999999-7-6--------|
D|-999999-777777-999999-777777-999999-7-6--------|
A|-777777-555555-777777-555555-777777-5-4--------|
E|-----------------------------------------------|
P.M --------------------------------|


[Outro]
(with the girl at the rock show...)

e|-----------------------------------------------------------|
B|-----------------------------------------------------------|
G|-----------------------------------------------------------|
D|-----2---0----------------------2---0----------------------| 
A|-0-0---0---0-0-0-4-5-4-0----0-0---0---0-0-0-4-7-4-0--------| Play until the
E|-----------------------------------------------------------|      end...

************************************

| P.M  Palm Muted

************************************ 

https://tabs.ultimate-guitar.com/b/blink-182/rock_show_ver7_tab_1427067id_28102013date.htm