Tablature guitare : Blink-182 – Wasting Time

Artist: Blink 182
Song: Wasting time
Tuning: Standard (E,A,D,G,B,e)
ftolone@hotmail.com

I don't know if this tab is 100% right, but the intro sounds really closer to the song 
than the other versions. Mail me any corrections


[Intro]

e|------------------------------------------------------| 
B|------------------------------------------------------| 
G|------------------------------------------------------| 
D|-----9-7-6--------6-7-9-7-6-----6--7-6-4--------------|
A|---7-------7--7-7------------4-4-4-------4--9-7-9-9-7-| 
E|-0----------------------------------------------------|   


[Verse]
  
e|-----------------------------------------------------------| 
B|-----------------------------------------------------------| 
G|---------------------6-6-6-6-6-4-4-4-4-4-------------------| 
D|-7-x-7-7-7-2-2-2-2-2-6-6-6-6-6-4-4-4-4-4-------------------|
A|-7-x-7-7-7-2-2-2-2-2-4-4-4-4-4-2-2-2-2-2-------------------| 
E|-5-x-5-5-5-0-0-0-0-0---------------------------------------|   
   

[Pre-Main Riff]

e|-------------------------------------------------------------------------------------|
B|---------------------------------------------------------------------10-------10-10--|
G|---------------------6-6-6-6-6-6-6-6-4-4-4-4-4-4-4-4-2-2-2-2-2-2-2-2----9---9------9-|
D|-7-x-7-7-7-2-2-2-2-2-6-6-6-6-6-6-6-6-4-4-4-4-4-4-4-4-2-2-2-2-2-2-2-2------7---------7|
A|-7-x-5-5-5-2-2-2-2-2-4-4-4-4-4-4-4-4-2-2-2-2-2-2-2-2-0-0-0-0-0-0-0-0-----------------|
E|-5-x-5-5-5-0-0-0-0-0-----------------------------------------------------------------|


[Chorus 1] 

e|------------------------------------------------------------|
B|------------------------------------------------------------|
G|-----------2-2-2-2-2--6-6-6-6-6--4-4-4-4-4------------------|
D|-2-2-2-2-2-2-2-2-2-2--6-6-6-6-6--4-4-4-4-4------------------|
A|-2-2-2-2-2-0-0-0-0-0--4-4-4-4-4--2-2-2-2-2------------------|
E|-0-0-0-0-0--------------------------------------------------|


[Chorus 2]

e|------------------------------------------------------------|
B|------------------------------------------------------------|
G|-----------2-x-x-x-x--6-x-x-x-x--4-x-x-x-x------------------|
D|-2-x-x-x-x-2-x-x-x-x--6-x-x-x-x--4-x-x-x-x------------------|
A|-2-x-x-x-x-0-x-x-x-x--4-x-x-x-x--2-x-x-x-x------------------|
E|-0-x-x-x-x--------------------------------------------------|
  ^-----Play With Heavy Palm Muting--------^


[End] 

(Let Ring)

e|-----------|
B|-----------|
G|-2---------|
D|-2---------|
A|-0---------|
E|-----------|



************************************

| x  Dead note

************************************

https://tabs.ultimate-guitar.com/b/blink-182/wasting_time_ver4_tab.htm