Tablature guitare : Blink-182 – Up All Night

Up All Night - Blink-182
Tabbed by: Ronald Karl
Email: ronnyboy57@gmail.com
Tuning: Standard

One of my first tabs guys - please enjoy and feel free to email me with questions. 
Tabbed by ear from the radio rip on KROQ.

[Intro Riff] x3
e|------------------------------------------------|-------------------------|
B|------------------------------------------------|-------------------------|
G|------------------------------------------------|-------------------------|
D|------------------------------------------------|-------------------------| 
A|------------------------------------------------|-------------------------|
E|-7-7-7-7-6-6-6-6-5-5-5-5-5-5-5-5-4-4-4-4-4-4-4-4|-10-10-10-10-10-10-10-10-|
                                                   
                                                     (3rd Time) -
                                                  e|-----------------------|
                                                  B|-----------------------|
                                                  G|-----------------------|
                                                  D|-----------------------|
                                                  A|-----------------------|
                                                  E|-3--3--3--3--3--3--3--3|

[Intro Part 2/Heavy Guitar Riff/Pre-Verse]
e|----------------------------------|
B|----------------------------------|
G|-------9-9-9----------------------|
D|-------9-9-9-------8-9-9-8-8-7-7--| x 4
A|-------7-7-7-------8-9-9-8-8-7-7--|
E|-5-4-0-------5-4-0-6-7-7-6-6-5-5--|

[Verse]
e|-------|
B|-------|
G|-------|
D|---7---| Played continually through verse - listen to song for strumming
A|---7---|
E|---5---|

[Pre-Chorus] (Palm-Muted):
e|-------------------------------------------|
B|-------------------------------------------|
G|------------------------------------7------|
D|-4------6------7------2------4------7 x16--|
A|-4 x16--6 x16--7 x16--2 x16--4 x16--5------|
E|-2------4------5------0------2------*------|
   *      *      *      *      *

[Chorus] (Repeat Twice)
e|-------------------------------------------------------------------------------------|
B|-------------------------------------------------------------------------------------|
G|-------------------------------------------------------------------------------------|
D|-7-7-7-9-9-9-11-11-11-9-9-9-11-11-12-12-9-9-9-11-11-11-12-12-12-11-11-11-12-12-11-11-|
A|-x-x-x-x-x-x-x--x--x--x-x-x-x--x--x--x--x-x-x-x--x--x--x--x--x--x--x--x--x--x--x--x--|
E|-5-5-5-7-7-7-9--9--9--7-7-7-9--9--10-10-7-7-7-9--9--9--10-10-10-9--9--9--10-10-9--9--|

[Intro Part 2/Heavy Guitar Riff/Pre-Verse] (First time is quieter)
e|----------------------------------|
B|----------------------------------|
G|-------9-9-9----------------------|
D|-------9-9-9-------8-9-9-8-8-7-7--| x 4
A|-------7-7-7-------8-9-9-8-8-7-7--|
E|-5-4-0-------5-4-0-6-7-7-6-6-5-5--|

[Verse] (Played exactly the same - Bass is slightly louder for this verse).
e|-------|
B|-------|
G|-------|
D|---7---| Played continually through verse - listen to song for strumming
A|---7---|
E|---5---|

[Pre-Chorus] (Palm Muted)
e|-------------------------------------------|
B|-------------------------------------------|
G|------------------------------------7------|
D|-4------6------7------2------4------7 x16--|
A|-4 x16--6 x16--7 x16--2 x16--4 x16--5------|
E|-2------4------5------0------2------*------|
   *      *      *      *      *

[Chorus] (Repeat 4 times)
Fades out on:
e|-----|
B|-----|
G|-----|
D|--7--|
A|--7--|
E|--5--|

[Ending] is the same as [Intro Part 2/Heavy Guitar Riff/Pre-Verse] played 8 times.
e|----------------------------------|
B|----------------------------------|
G|-------9-9-9----------------------|
D|-------9-9-9-------8-9-9-8-8-7-7--| x 8
A|-------7-7-7-------8-9-9-8-8-7-7--|
E|-5-4-0-------5-4-0-6-7-7-6-6-5-5--|

************************************

| x  Dead note
| *  Palm mute

************************************

https://tabs.ultimate-guitar.com/b/blink-182/up_all_night_tab_1075355id_15072011date.htm