Tablature guitare : Blink-182 – Story Of A Lonely Guy

Blink 182, Story of a lonley guy.
 Tabbed by Ryan, Blink180tw@aol.com.
  
Intro 2x
E|--------------------------------------
B|--------------------------------------
G|--------------------------------------
D|-----777-99999999-----777-999-777777--
A|-777--------------777-----------------
E|--------------------------------------

Verse 4x
E|----------------------------------------------------
B|----------------------------------------------------
G|----------------------------------------------------
D|----------------------------------------------------
A|-77777777-99999999-1111111111111111-1212121212121212
E|-55555555-77777777--9-9-9-9-9-9-9-9-1010101010101010
  p.m.................................................

Da Da.... 2x
E|--------------------------------------------------
B|--------------------------------------------------
G|--------------------------------------------------
D|-----6-----6-----7-----7------------------9-----9-
A|-4-4---4-4---5-5---5-5-------7-----7--7-7---7-7---
E|-------------------------5-5---5-5----------------

Chorus 4x
E|--------------------------------------
B|--------------------------------------
G|----------99999999----------77777777--
D|-77777777-99999999-44444444-77777777--
A|-77777777-77777777-44444444-55555555--
E|-55555555----------22222222-----------

Intro 2x

Verse 2x

Da Da.... 2x

Chorus 2x

Interlude
E|--------------------------------------------
B|--------------------------------------------
G|--------------------------9999999999999999--2x
D|-----6-----6-----7-----7--9999999999999999--
A|-4-4---4-4---5-5---5-5----7777777777777777--
E|--------------------------------------------

E|-------------------------------------------------
B|-------------------------------------------------
G|-------------------------------------------------
D|-----6-----6-----7-----7-----9-----9-----9-----9-
A|-4-4---4-4---5-5---5-5---7-7---7-7---7-7---7-7---
E|-------------------------------------------------

E|--------------------------
B|--------------------------
G|--------------------------
D|-----6-----6-----7-----7--
A|-4-4---4-4---5-5---5-5----
E|--------------------------

Outro 5x
E|--------------------------------------
B|--------------------------------------
G|----------99999999----------77777777--
D|-77777777-99999999-44444444-77777777--
A|-77777777-77777777-44444444-55555555--
E|-55555555----------22222222-----------

Ending
E|----------------------------------------------
B|----------------------------------------------
G|----------99999999----------7777777777777777--
D|-77777777-99999999-44444444-7777777777777777--
A|-77777777-77777777-44444444-5555555555555555--
E|-55555555----------22222222-------------------

E|----
B|----
G|----
D|-7--
A|-7--
E|-5--

Thats it. Listen to the song to get the timeing down. 
:: Ultimate Guitar Archive :: 
http://www.ultimate-guitar.com 

https://tabs.ultimate-guitar.com/b/blink-182/story_of_a_lonely_guy_ver2_tab.htm