Tablature guitare : Blink-182 – Stockholm Syndrome

[Intro]
e|-----------------|-----------------|-----------------|-----------------|
B|-----------------|-----------------|-----------------|-----------------|
G|-0-0-0-0---------|-----------------|-------------0---|-----------------|
D|-2-2-2-2---------|-----------------|-------------0---|-----------------|
A|-2-2-2-2---------|-----------------|---3-3-3-3-------|-----------------|
E|-0-0-0-0---------|-----------------|---3-3-3-3-------|-----------------|

e|-----------------|-----------------|-----------------|-----------------|
B|-----------------|-----------------|-----------------|------------0----|
G|-----------------|-----------------|---2-2-2-2--7--0-|-0---------------|
D|-5-5-5-5---------|-----------------|---2-2-2-2-------|-----------------|
A|-2-2-2-2---------|-----------------|---0-0-0-0-------|-----------------|
E|-----------------|-----------------|-----------------|-----------------|

e|-----------------|-----------------|-----------------|-----------------|
B|-----------------|-------------12--|-----------------|-------------12--|
G|------------12---|-12--------------|---5-5-5-5--12---|-12--------------|
D|-----------------|------12---------|---5-5-5-5-------|------12---------|
A|-2-2-2-2---------|-----------------|---3-3-3-3-------|-----------------|
E|-0-0-0-0---------|-----------------|---3-3-3-3-------|-----------------|

e|-----------------|-----------------|-----------------|-----------------|
B|-----------------|-------------12--|-----------------|-----------------|
G|------------12---|-12--------------|---2-2-2-2--12---|--5-5-5--5-5-5-5-|
D|-5-5-5-5---------|------12---------|---2-2-2-2-------|--5-5-5--5-5-5-5-|
A|-2-2-2-2---------|-----------------|---0-0-0-0-------|--3-3-3--3-3-3-3-|
E|-----------------|-----------------|-----------------|----3-3--3-3-3-3-|

[Chorus]
e|-----------------|-----------------|-----------------|-----------------|
B|-----------------|-----------------|-----------------|-----------------|
G|(5)0-0---0-0-0---|-0-0-0-0-0-0-0-0-|-----------------|-----------------|
D|(5)2-2---2-2-2---|-2-2-2-2-2-2-2-2-|-----------------|-----------------|
A|(3)2-2---2-2-2---|-2-2-2-2-2-2-2-2-|---3-3---3-3-3-3-|-3-3-3-3-3-3-3-3-|
E|(3)0-0---0-0-0---|-0-0-0-0-0-0-0-0-|---3-3---3-3-3-3-|-3-3-3-3-3-3-3-3-|

e|-----------------|-----------------|-----------------|-----------------|
B|-----------------|-----------------|-----------------|-----------------|
G|-----------------|-----------------|---2-2-2-2-2-2-0-|-----------------|
D|-----------------|-----------------|---2-2-2-2-2-2-0-|-----------------|
A|-3-5-5-5-5-5-5-5-|-5-5-5-5-5-5-5-5-|---0-0-0-0-0-0-0-|-5-5-5-5-5-5-5-5-|
E|-3-3-3-3-3-3-3-3-|-3-3-3-3-3-3-3-3-|-----------------|-2-2-2-2-2-2-2-2-|

e|-----------------|-----------------|-----------------|-----------------|
B|-----------------|-----------------|-----------------|-----------------|
G|---0-0-0-0-0-0-0-|-0-0-0-0-0-0-0-0-|-----------------|-----------------|
D|---2-2-2-2-2-2-2-|-2-2-2-2-2-2-2-2-|-----------------|-----------------|
A|-5-2-2-2-2-2-2-2-|-2-2-2-2-2-2-2-2-|---3-3---3-3-3-3-|-3-3-3-3-3-3-3-3-|
E|-2-0-0-0-0-0-0-0-|-0-0-0-0-0-0-0-0-|---3-3---3-3-3-3-|-3-3-3-3-3-3-3-3-|

e|-----------------|-----------------|-----------------|-----------------|
B|-----------------|-----------------|-----------------|-----------------|
G|-----------------|-----------------|---2-2-2-2-2-2-0-|-5-5-5---5-5-5---|
D|-----------------|-----------------|---2-2-2-2-2-2-0-|-5-5-5---5-5-5-0-|
A|-3-5-5-5-5-5-5-5-|-5-5-5-5-5-5-5-5-|---0-0-0-0-0-0-0-|-3-3-3---3-3-3-0-|
E|-3-3-3-3-3-3-3-3-|-3-3-3-3-3-3-3-3-|-----------------|-3-3-3---3-3-3---|

[Interlude]
e|(3)---(5)----(7)-|--(3)-----(3)-(2)|-----------------|-----------------|
B|(0)--------------|-----------------|-----------------|-----------------|
G|(0)--------------|-----------------|-----------------|-----------------|
D|-----------------|-----------------|-5-5-5-5-5-4---5-|---5-5-5-5-5-5---|
A|-2---------------|-----------------|-x-x-x-x-x-x---x-|---x-x-x-x-x-x-0-|
E|-0---------------|-----------------|-3-3-3-3-3-2---3-|---3-3-3-3-3-3-0-|

e|(3)---(5)----(7)-|--(3)-----(3)-(2)|-----------------|-----------------|
B|(0)--------------|-----------------|-----------------|-----------------|
G|(0)--------------|-----------------|-----------------|-----------------|
D|-----------------|-----------------|-5-5-5-5-5-4---5-|---5-5-5-5-5-5-5-|
A|-2---------------|-----------------|-x-x-x-x-x-x---x-|---x-x-x-x-x-x-x-|
E|-0---------------|-----------------|-3-3-3-3-3-2---3-|---3-3-3-3-3-3-3-|

e|-----------------|-----------------|-----------------|-----------------|
B|-----------------|-----------------|-----------------|-----------------|
G|-----------------|-----------------|-----------------|-----------------|
D|-5-----7-----9---|---5---5-5-5-4-4-|-5-5-5-5-5-4-4-5-|-5-5-5-5-5-5-5-5-|
A|-x-----x-----x---|---x---x-x-x-x-x-|-x-x-x-x-x-x-x-x-|-x-x-x-x-x-x-x-x-|
E|-3---0-5---0-7---|-0-3---3-3-3-2-2-|-3-3-3-3-3-2-2-3-|-3-3-3-3-3-3-3-3-|

e|-----------------|-----------------|-----------------|-----------------|
B|-----------------|-----------------|-----------------|-----------------|
G|-----------------|-----------------|-----------------|-----------------|
D|-5-----7-----9---|---5---5-5-5-4-4-|-5-5-5-5-5-4-4-5-|-5-5-5-5-5-5-5-5-|
A|-x-----x-----x---|---x---x-x-x-x-x-|-x-x-x-x-x-x-x-x-|-x-x-x-x-x-x-x-x-|
E|-3---0-5---0-7---|-0-3---3-3-3-2-2-|-3-3-3-3-3-2-2-3-|-3-3-3-3-3-3-3-3-|

e|-----------------|-----------------|-----------------|-----------------|
B|-----------------|-----------------|-----------------|-----------------|
G|-----------------|-----------------|-----------------|-----------------|
D|-----------------|-----------------|-----------------|-----------------|
A|-----------------|-----------------|-----------------|-----------------|
E|-7-7-7-7-7-7-7-7-|-7-7-7-7-7-8-8-7-|-7-8-8-8-8-8-8-8-|-8-8-8-8-8-8-8-8-|
PM......................................................................

e|-----------------|-----------------|-----------------|-----------------|
B|-----------------|-----------------|-----------------|-----------------|
G|-----------------|-----------------|-----------------|-----------------|
D|-----------------|-----------------|-----------------|-----------------|
A|-----------------|-----------------|-----------------|-----------------|
E|-7-7-7-7-7-7-7-7-|-7-7-7-7-7-7-7-7-|-5-5-5-5-5-5-5-5-|-3-3-3-3-3-3-3-3-|
PM......................................................................

[Verse]
e|-----------------|-----------------|-----------------|-----------------|
B|------(10)-------|-----------------|-----------------|-----------------|
G|------------(12)-|-----------------|-----(11--11h12)-|-----------------|
D|(12)-------------|-----------------|(12)-------------|-----------------|
A|-----------------|-----------------|-----------------|-----------------|
E|-7-7-7-7-7-7-7-7-|-7-7-7-7-7-8-8-7-|-7-8-8-8-8-8-8-8-|-8-8-8-8-8-8-8-8-|
PM......................................................................

e|-----------------|-----------------|-----------------|-----------------|
B|------(10)-------|-----------------|-----------------|-----------------|
G|------------(12)-|-----------------|-----------------|--------(11-h12)-|
D|--(12)-----------|-----------------|-----------------|-----------------|
A|-----------------|-----------------|-----------------|-----------------|
E|-7-7-7-7-7-7-7-7-|-7-7-7-7-7-7-7-7-|-5-5-5-5-5-5-5-5-|-3-3-3-3-3-3-3-3-|
PM......................................................................

e|-----------------|-----------------|-----------------|-----------------|
B|------(10)-------|-----------------|-----------------|-----------------|
G|------------(12)-|-----------------|-----(11--11h12)-|-----------------|
D|(12)-------------|-----------------|(12)-------------|-----------------|
A|-----------------|-----------------|-----------------|-----------------|
E|-7-7-7-7-7-7-7-7-|-7-7-7-7-7-8-8-7-|-7-8-8-8-8-8-8-8-|-8-8-8-8-8-8-8-8-|
PM......................................................................

e|-----------------|-----------------|-----------------|-----------------|
B|(10)-------------|-----------------|-----------------|(10)-------------|
G|------(11)-------|(12)-------------|-----------------|------(11-11h12)-|
D|-----------------|-----------------|-----------------|-----------------|
A|-----------------|-----------------|-----------------|-----------------|
E|-7-7-7-7-7-7-7-7-|-7-7-7-7-7-7-7-7-|-5-5-5-5-5-5-5-5-|-3---------------|
PM....................................................

[Pre-Chorus]
e|-----------------|-----------------|-----------------|-----------------|
B|-----------------|-----------------|-----------------|-----------------|
G|-----------------|-----------------|-----------------|-----------------|
D|-5---5-5-5-5-5-5-|-5-5-5-5-5-5-5-5-|-5-5-5-5-5-5-5-5-|-5-5-5-5-5-5-5-5-|
A|-2---2-2-2-2-2-2-|-2-2-2-2-2-2-2-2-|-3-3-3-3-3-3-3-3-|-3-3-3-3-3-3-3-0-|
E|-----------------|-----------------|-----------------|-----------------|

e|-----------------|-----------------|-----------------|-----------------|
B|-----------------|-----------------|-----------------|-----------------|
G|-----------------|-----------------|-----------------|-----------------|
D|-5-5-5-5-5-5-5-5-|-5-5-5-5-5-5-5---|-7-7-7-7-7-7-7-7-|-5-5-5-5-5-5-5---|
A|-2-2-2-2-2-2-2-2-|-2-2-2-2-2-2-2-0-|-x-x-x-x-x-x-x-x-|-x-x-x-x-x-x-x---|
E|-----------------|---------------0-|-5-5-5-5-5-5-5-5-|-3-3-3-3-3-3-3-0-|

e|-----------------|-----------------|-----------------|-----------------|
B|-----------------|-----------------|-----------------|-----------------|
G|-----------------|-----------------|-----------------|-----------------|
D|-5---5-5-5-5-5-5-|-5-5-5-5-5-5-5-5-|-5-5-5-5-5-5-5-5-|-5-5-5-5-5-5-5-5-|
A|-2---2-2-2-2-2-2-|-2-2-2-2-2-2-2-2-|-3-3-3-3-3-3-3-3-|-3-3-3-3-3-3-3-0-|
E|-----------------|-----------------|-----------------|-----------------|

e|-----------------|-----------------|-----------------|-----------------|
B|-----------------|-----------------|-----------------|-----------------|
G|-----------------|-----------------|-----------------|-----------------|
D|-5-5-5-5-5-5-5-5-|-5-5-5-5-5-5-5---|-7-7-7-7-7-7-7-7-|-5-5-5-5-5-5-5-5-|
A|-2-2-2-2-2-2-2-2-|-2-2-2-2-2-2-2-0-|-x-x-x-x-x-x-x-x-|-x-x-x-x-x-x-x-x-|
E|-----------------|---------------0-|-5-5-5-5-5-5-5-5-|-3-3-3-3-3-3-3-3-|

[Chorus]
e|-----------------|-----------------|-----------------|-----------------|
B|-----------------|-----------------|-----------------|-----------------|
G|(5)0-0---0-0-0---|-0-0-0-0-0-0-0-0-|-----------------|-----------------|
D|(5)2-2---2-2-2---|-2-2-2-2-2-2-2-2-|-----------------|-----------------|
A|(3)2-2---2-2-2---|-2-2-2-2-2-2-2-2-|---3-3---3-3-3-3-|-3-3-3-3-3-3-3-3-|
E|(3)0-0---0-0-0---|-0-0-0-0-0-0-0-0-|---3-3---3-3-3-3-|-3-3-3-3-3-3-3-3-|

e|-----------------|-----------------|-----------------|-----------------|
B|-----------------|-----------------|-----------------|-----------------|
G|-----------------|-----------------|---2-2-2-2-2-2-0-|-----------------|
D|-----------------|-----------------|---2-2-2-2-2-2-0-|-----------------|
A|-3-5-5-5-5-5-5-5-|-5-5-5-5-5-5-5-5-|---0-0-0-0-0-0-0-|-5-5-5-5-5-5-5-5-|
E|-3-3-3-3-3-3-3-3-|-3-3-3-3-3-3-3-3-|-----------------|-2-2-2-2-2-2-2-2-|

e|-----------------|-----------------|-----------------|-----------------|
B|-----------------|-----------------|-----------------|-----------------|
G|---0-0-0-0-0-0-0-|-0-0-0-0-0-0-0-0-|-----------------|-----------------|
D|---2-2-2-2-2-2-2-|-2-2-2-2-2-2-2-2-|-----------------|-----------------|
A|-5-2-2-2-2-2-2-2-|-2-2-2-2-2-2-2-2-|---3-3---3-3-3-3-|-3-3-3-3-3-3-3-3-|
E|-2-0-0-0-0-0-0-0-|-0-0-0-0-0-0-0-0-|---3-3---3-3-3-3-|-3-3-3-3-3-3-3-3-|

e|-----------------|-----------------|-----------------|-----------------|
B|-----------------|-----------------|-----------------|-----------------|
G|-----------------|-----------------|---2-2-2-2-2-2-0-|-5-5-5---5-5-5---|
D|-----------------|-----------------|---2-2-2-2-2-2-0-|-5-5-5---5-5-5-0-|
A|-3-5-5-5-5-5-5-5-|-5-5-5-5-5-5-5-5-|---0-0-0-0-0-0-0-|-3-3-3---3-3-3-0-|
E|-3-3-3-3-3-3-3-3-|-3-3-3-3-3-3-3-3-|-----------------|-3-3-3---3-3-3---|

[End Note]
e|-----------------|-----------------|
B|-----------------|-----------------|
G|-0~~~~~~~~~~~~~~~|~-~--------------|
D|-2~~~~~~~~~~~~~~~|~-~--------------|
A|-2~~~~~~~~~~~~~~~|~-~--------------|
E|-0~~~~~~~~~~~~~~~|~-~--------------|


************************************

| (n)  Ghost note
| x    Dead note
| PM   Palm mute
| h    Hammer-on
| ~    Vibrato 

************************************

https://tabs.ultimate-guitar.com/b/blink-182/stockholm_syndrome_ver4_tab.htm