Tablature guitare : Blink-182 – Stay Together For The Kids

Blink 182
"Stay Together For The Kids"
Take Off Your Pants and Jacket
by brian k., any comments, e-mail me at Lilelementkid@aol.com:::


[Intro]

e|--------------------------------------------|
b|--------------------------------------------|
g|--------------------------------------------| x2
d|--0-7-0-4-0-0-7-0-4-0-0-4-0-5-0-2-4-5-4-2-0-|
a|-5-5---5---4-4---4---2-2---2---0-0----------|
e|--------------------------------------------|


[Verse 1]

e|-----------------------------------------------------------|
b|-----------------------------------------------------------|
g|-----------------------------------------------------------|
d|----7---7---7---7-----------------------------------6----6-| x2
a|-5-5-5-5-5-5-5-5----7---7---7---7---7---7---7---7---7---7--|
e|-----------------7-7-7-7-7-7-7-7-5-5-5-5-5-5-5-5-5-5-5-5---|


[Chorus]

e|------------------------------------------------------------------|
b|------------------------------------------------------------------|
g|------------------------------------------------------------------|
d|-5-5-5-5-5-5-5-5-5-5-5-5-5-5-5-5--4-4-4-4-4-4-4-4-4-4-4-4-4-4-4-4-| x4
a|-5-5-5-5-5-5-5-5-5-5-5-5-5-5-5-5--5-5-5-5-5-5-5-5-5-5-5-5-5-5-5-5-|
e|-3-3-3-3-3-3-3-3-3-3-3-3-3-3-3-3--2-2-2-2-2-2-2-2-2-2-2-2-2-2-2-2-|


[Instrumental]

e|--------------------------------------------|
b|--------------------------------------------|
g|--------------------------------------------| x2
d|--0-7-0-4-0-0-7-0-4-0-0-4-0-5-0-2-4-5-4-2-0-|
a|-5-5---5---4-4---4---2-2---2---0-0----------|
e|--------------------------------------------|


[Verse 2]

e|--------------------------------------------------------------------------|
b|---------------------------------------------------------5-----5----------|
g|-----7----7----7----7---7---7---7---7---7---7---7---7----6-----6----6---6-|
d|-----7----7----7----7---7---7---7---7---7---7---7---7---------------7---7-|  x2
a|-5-5--5-5--5-5--5-5-------------------------------------------------------|
e|---------------------7-7-7-7-7-7-7-7-5-5-5-5-5-5-5-5-5-5---5-5--5-5--5-5--|


[Chorus]

e|------------------------------------------------------------------|
b|------------------------------------------------------------------|
g|------------------------------------------------------------------|
d|-5-5-5-5-5-5-5-5-5-5-5-5-5-5-5-5--4-4-4-4-4-4-4-4-4-4-4-4-4-4-4-4-| x4
a|-5-5-5-5-5-5-5-5-5-5-5-5-5-5-5-5--5-5-5-5-5-5-5-5-5-5-5-5-5-5-5-5-|
e|-3-3-3-3-3-3-3-3-3-3-3-3-3-3-3-3--2-2-2-2-2-2-2-2-2-2-2-2-2-2-2-2-|


[Interlude]

e|----------------------------------------|
b|---3---3--3---3--3--3---3--3-3---3--3-3-|
g|--2---2------2--2------2--2-----2--2----|
d|-0---0---0------------------------------| x2
a|------------0--0--0------------0--0--0--|
e|----------------------3--3-3------------|

[Chorus]

e|------------------------------------------------------------------|
b|------------------------------------------------------------------|
g|------------------------------------------------------------------|
d|-5-5-5-5-5-5-5-5-5-5-5-5-5-5-5-5--4-4-4-4-4-4-4-4-4-4-4-4-4-4-4-4-| (repeat to end)
a|-5-5-5-5-5-5-5-5-5-5-5-5-5-5-5-5--5-5-5-5-5-5-5-5-5-5-5-5-5-5-5-5-|
e|-3-3-3-3-3-3-3-3-3-3-3-3-3-3-3-3--2-2-2-2-2-2-2-2-2-2-2-2-2-2-2-2-|

https://tabs.ultimate-guitar.com/b/blink-182/stay_together_for_the_kids_ver4_tab.htm

 

This is 100% correct
I've included the lyrics too.
If you think I've made a mistake comment.


Tuning: Standard E
Key: D


[Intro]

E|-----------------|-----------------|-----------------|-----------------|
B|-----------------|-----------------|-----------------|-----------------|
G|-----------------|-----------------|-----------------|-----------------| x2
D|---0---7-0---4-0-|---0---7-0---4-0-|---0---4-0---5-0-|---2---4-5-4-2-0-|
A|-5---5-----5-----|-4---4-----4-----|-2---2-----2-----|-0---0-----------|
E|-----------------|-----------------|-----------------|-----------------|


[Verse] [0:13]

E|-------------------------|-------------------------|
B|-------------------------|-------------------------|
G|-----7-----7-----7-----7-|-----7-----7-----7-----7-|
D|-----7-----7-----7-----7-|-----7-----7-----7-----7-|
A|-5-5---5-5---5-5---5-5---|-------------------------|
E|-------------------------|-7-7---7-7---7-7---7-7---|
1."It's hard to wake up, When the shades have been pulled shut"
2."I'm ripe with things to say, The words rot and fall away"

E|-------------------------|---------------------------|
B|-------------------------|---------------------------|
G|-----7-----7-----7-----7-|-----9-----9-----6-----6h7-| x2
D|-----7-----7-----7-----7-|-----7-----7-----7-----7---|
A|-0-0---0-0---0-0---0-0---|-0-0---0-0---0-0---0-0-----|
E|-------------------------|---------------------------|
1."This house is haunted, It's so pathetic it makes no sense at all"
2."What stupid poem, Could fix this home, I'd read it everyday"


[Chorus] [0:39]

                                              Now I've been told that this is how you play this
                                part. It doesn't sound right to me, but I'll let you be the judge.
                                                     \                    /
                                                      E|-----------------|
                                                      B|-----------------|
                                                      G|-----------------|
                                                      D|-4-4-4-4-4-4-4-4-|
                                                      A|-5-5-5-5-5-5-5-5-|
                                                      E|-2-2-2-2-2-0-0-0-|

E|-----------------|-----------------|-----------------|-----------------|
B|-----------------|-----------------|-----------------|-----------------|
G|-----------------|-----------------|-----------------|-----------------|
D|-5-5-5-5-5-5-5-5-|-5-5-5-5-5-5-5-5-|-4-4-4-4-4-4-4-4-|-4-4-4-4-4-4-4-4-|
A|-5-5-5-5-5-5-5-5-|-5-5-5-5-5-5-5-5-|-5-5-5-5-5-5-5-5-|-5-5-5-5-5-5-5-5-|
E|-3-3-3-3-3-3-3-3-|-3-3-3-3-3-3-3-3-|-2-2-2-2-2-2-2-2-|-2-2-2-2-2-2-0-2-|
               "So here's your holiday"                     "Hope you"

E|-----------------|-----------------|-----------------|-----------------|
B|-----------------|-----------------|-----------------|-----------------|
G|-----------------|-----------------|-----------------|-----------------|
D|-5-5-5-5-5-5-5-5-|-5-5-5-5-5-5-5-5-|-4-4-4-4-4-4-4-4-|-4-4-4-4-4-4-4-4-|
A|-5-5-5-5-5-5-5-5-|-5-5-5-5-5-5-5-5-|-5-5-5-5-5-5-5-5-|-5-5-5-5-5-5-5-5-|
E|-3-3-3-3-3-3-3-3-|-3-3-3-3-3-3-3-3-|-2-2-2-2-2-2-2-2-|-2-2-2-2-2-2-0-2-|
  "Enjoy it this time, you gave it all away"                "It was mine"

E|-----------------|-----------------|-----------------|-----------------|
B|-----------------|-----------------|-----------------|-----------------|
G|-----------------|-----------------|-----------------|-----------------|
D|-5-5-5-5-5-5-5-5-|-5-5-5-5-5-5-5-5-|-4-4-4-4-4-4-4-4-|-4-4-4-4-4-4-4-4-|
A|-5-5-5-5-5-5-5-5-|-5-5-5-5-5-5-5-5-|-5-5-5-5-5-5-5-5-|-5-5-5-5-5-5-5-5-|
E|-3-3-3-3-3-3-3-3-|-3-3-3-3-3-3-3-3-|-2-2-2-2-2-2-2-2-|-2-2-2-2-2-2-0-2-|
  "So when you're dead and gone"                            "Will you"

E|-----------------|-----------------|-----------------|-----------------|
B|-----------------|-----------------|-----------------|-----------------|
G|-----------------|-----------------|-----------------|-----------------|
D|-5-5-5-5-5-5-5-5-|-5-5-5-5-5-5-5-5-|-4-4-4-4-4-4-4-4-|-4-4-4-4-4-4-4-4-|
A|-5-5-5-5-5-5-5-5-|-5-5-5-5-5-5-5-5-|-5-5-5-5-5-5-5-5-|-5-5-5-5-5-5-5-5-|
E|-3-3-3-3-3-3-3-3-|-3-3-3-3-3-3-3-3-|-2-2-2-2-2-2-2-2-|-2-2-2-2-2-2-0-2-|
  "Remember this night twenty years now lost"             "It's not right"


[Break] [1:06]

E|-----------------|-----------------|-----------------|-----------------|
B|-----------------|-----------------|-----------------|-----------------|
G|-----------------|-----------------|-----------------|-----------------| x2
D|---0---7-0---4-0-|---0---7-0---4-0-|---0---4-0---5-0-|---2---4-5-4-2-0-|
A|-5---5-----5-----|-4---4-----4-----|-2---2-----2-----|-0---0-----------|
E|-----------------|-----------------|-----------------|-----------------|


[Verse 2] [1:19]

E|-------------------------|-------------------------|
B|-------------------------|-------------------------|
G|-----7-----7-----7-----7-|-----7-----7-----7-----7-|
D|-----7-----7-----7-----7-|-----7-----7-----7-----7-|
A|-5-----------------------|-------------------------|
E|-------------------------|-7-----------------------|
1."Their anger hurts my ears, Been runnin' strong for 7 years"
2."I see them every day, We get along so why can't they?"

E|-------------------------|---------------------------|
B|-------------------------|-----5-----------5---------|
G|-----7-----7-----7-----7-|-----7-----7-----7-----7---| x2
D|-----7-----7-----7-----7-|-----7-----7-----7-----7---|
A|-0-----------------------|-0-----0-----0-----0-------|
E|-------------------------|---------------------------|
1."Rather than fix the problems, They never solve them, It makes no sense at all"
2."If this is what he wants, and it's what she wants, Then why is there so much pain?"


[Chorus 2] [1:45]

E|-----------------|-----------------|-----------------|-----------------|
B|-----------------|-----------------|-----------------|-----------------|
G|-----------------|-----------------|-----------------|-----------------|
D|-5-5-5-5-5-5-5-5-|-5-5-5-5-5-5-5-5-|-4-4-4-4-4-4-4-4-|-4-4-4-4-4-4-4-4-|
A|-5-5-5-5-5-5-5-5-|-5-5-5-5-5-5-5-5-|-5-5-5-5-5-5-5-5-|-5-5-5-5-5-5-5-5-|
E|-3-3-3-3-3-3-3-3-|-3-3-3-3-3-3-3-3-|-2-2-2-2-2-2-2-2-|-2-2-2-2-2-2-0-2-|
                  "So here's your holiday"                  "Hope you"

E|-----------------|-----------------|-----------------|-----------------|
B|-----------------|-----------------|-----------------|-----------------|
G|-----------------|-----------------|-----------------|-----------------|
D|-5-5-5-5-5-5-5-5-|-5-5-5-5-5-5-5-5-|-4-4-4-4-4-4-4-4-|-4-4-4-4-4-4-4-4-|
A|-5-5-5-5-5-5-5-5-|-5-5-5-5-5-5-5-5-|-5-5-5-5-5-5-5-5-|-5-5-5-5-5-5-5-5-|
E|-3-3-3-3-3-3-3-3-|-3-3-3-3-3-3-3-3-|-2-2-2-2-2-2-2-2-|-2-2-2-2-2-2-0-2-|
  "Enjoy it this time, you gave it all away"                "It was mine"

E|-----------------|-----------------|-----------------|-----------------|
B|-----------------|-----------------|-----------------|-----------------|
G|-----------------|-----------------|-----------------|-----------------|
D|-5-5-5-5-5-5-5-5-|-5-5-5-5-5-5-5-5-|-4-4-4-4-4-4-4-4-|-4-4-4-4-4-4-4-4-|
A|-5-5-5-5-5-5-5-5-|-5-5-5-5-5-5-5-5-|-5-5-5-5-5-5-5-5-|-5-5-5-5-5-5-5-5-|
E|-3-3-3-3-3-3-3-3-|-3-3-3-3-3-3-3-3-|-2-2-2-2-2-2-2-2-|-2-2-2-2-2-2-0-2-|
  "So when you're dead and gone"                            "Will you"

E|-----------------|-----------------|-----------------|-----------------|
B|-----------------|-----------------|-----------------|-----------------|
G|-----------------|-----------------|-----------------|-----------------|
D|-5-5-5-5-5-5-5-5-|-5-5-5-5-5-5-5-5-|-4-4-4-4-4-4-4-4-|-4-4-4-4-4-4-4-4-|
A|-5-5-5-5-5-5-5-5-|-5-5-5-5-5-5-5-5-|-5-5-5-5-5-5-5-5-|-5-5-5-5-5-5-5-5-|
E|-3-3-3-3-3-3-3-3-|-3-3-3-3-3-3-3-3-|-2-2-2-2-2-2-2-2-|-2-2-2-2-2-2-0-2-|
  "Remember this night twenty years now lost"             "It's not right"


Just strum these chords for the bridge

(I usually play the notes in parenthesis. They are optional though}


[Bridge] [2:12]

E|-2----(3)--(2)---|-3-------0-------|
B|-3----(3)--(3)---|-3-------2-------|
G|-2----(2)--(2)---|-0-------2-------|
D|-0---------------|-0-------2-------|
A|-----------------|-2-------0-------|
E|-----------------|-3---------------|

I think the piano plays something like:

E|-----------------|-----------------|-----------------|-----------------|
B|-----3-----3---3-|-----3-----3---3-|-----3-----3---3-|-----3-----3---3-|
G|-----2-----2---2-|-----2-----2---2-|-----2-----2---2-|-----2-----2---2-|
D|-0-0---0-0---0---|-----------------|-----------------|-----------------|
A|-----------------|-0-0---0-0---0---|-----------------|-0-0---0-0---0---|
E|-----------------|-----------------|-3-3---3-3---3---|-----------------|


[Outro] [2:38

E|-----------------|-----------------|-----------------|-----------------|
B|-----------------|-----------------|-----------------|-----------------|
G|-----------------|-----------------|-----------------|-----------------| x2
D|-5-5-5-5-5-5-5-5-|-5-5-5-5-5-5-5-5-|-4-4-4-4-4-4-4-4-|-4-4-4-4-4-4-4-4-|
A|-5-5-5-5-5-5-5-5-|-5-5-5-5-5-5-5-5-|-5-5-5-5-5-5-5-5-|-5-5-5-5-5-5-5-5-|
E|-3-3-3-3-3-3-3-3-|-3-3-3-3-3-3-3-3-|-2-2-2-2-2-2-2-2-|-2-2-2-2-2-2-0-2-|

E|-----------------|-----------------|-----------------|-----------------|
B|-----------------|-----------------|-----------------|-----------------|
G|-----------------|-----------------|-----------------|-----------------|
D|-5-5-5-5-5-5-5-5-|-5-5-5-5-5-5-5-5-|-4-4-4-4-4-4-4-4-|-4-4-4-4-4-4-4-4-|
A|-5-5-5-5-5-5-5-5-|-5-5-5-5-5-5-5-5-|-5-5-5-5-5-5-5-5-|-5-5-5-5-5-5-5-5-|
E|-3-3-3-3-3-3-3-3-|-3-3-3-3-3-3-3-3-|-2-2-2-2-2-2-2-2-|-2-2-2-2-2-2-0-2-|
                  "So here's your holiday"                  "Hope you"

E|-----------------|-----------------|-----------------|-----------------|
B|-----------------|-----------------|-----------------|-----------------|
G|-----------------|-----------------|-----------------|-----------------|
D|-5-5-5-5-5-5-5-5-|-5-5-5-5-5-5-5-5-|-4-4-4-4-4-4-4-4-|-4-4-4-4-4-4-4-4-|
A|-5-5-5-5-5-5-5-5-|-5-5-5-5-5-5-5-5-|-5-5-5-5-5-5-5-5-|-5-5-5-5-5-5-5-5-|
E|-3-3-3-3-3-3-3-3-|-3-3-3-3-3-3-3-3-|-2-2-2-2-2-2-2-2-|-2-2-2-2-2-2-0-2-|
  "Enjoy it this time, you gave it all away"                "It was mine"

E|-----------------|-----------------|-----------------|-----------------|
B|-----------------|-----------------|-----------------|-----------------|
G|-----------------|-----------------|-----------------|-----------------|
D|-5-5-5-5-5-5-5-5-|-5-5-5-5-5-5-5-5-|-4-4-4-4-4-4-4-4-|-4-4-4-4-4-4-4-4-|
A|-5-5-5-5-5-5-5-5-|-5-5-5-5-5-5-5-5-|-5-5-5-5-5-5-5-5-|-5-5-5-5-5-5-5-5-|
E|-3-3-3-3-3-3-3-3-|-3-3-3-3-3-3-3-3-|-2-2-2-2-2-2-2-2-|-2-2-2-2-2-2-0-2-|
           "So when you're dead and gone"                    "Will you"

E|-----------------|-----------------|-----------------|-----------------|
B|-----------------|-----------------|-----------------|-----------------|
G|-----------------|-----------------|-----------------|-----------------|
D|-5-5-5-5-5-5-5-5-|-5-5-5-5-5-5-5-5-|-4-4-4-4-4-4-4-4-|-4-4-4-4-4-4-4-4-|
A|-5-5-5-5-5-5-5-5-|-5-5-5-5-5-5-5-5-|-5-5-5-5-5-5-5-5-|-5-5-5-5-5-5-5-5-|
E|-3-3-3-3-3-3-3-3-|-3-3-3-3-3-3-3-3-|-2-2-2-2-2-2-2-2-|-2-2-2-2-2-2-0-2-|
  "Remember this night twenty years now lost"             "It's not right"

E|-----------------|-----------------|-----------------|-----------------|
B|-----------------|-----------------|-----------------|-----------------|
G|-----------------|-----------------|-----------------|-----------------|
D|-5-5-5-5-5-5-5-5-|-5-5-5-5-5-5-5-5-|-4-4-4-4-4-4-4-4-|-4-4-4-4-4-4-4-4-|
A|-5-5-5-5-5-5-5-5-|-5-5-5-5-5-5-5-5-|-5-5-5-5-5-5-5-5-|-5-5-5-5-5-5-5-5-|
E|-3-3-3-3-3-3-3-3-|-3-3-3-3-3-3-3-3-|-2-2-2-2-2-2-2-2-|-2-2-2-2-2-2-0-2-|
                      "It's not right"                 "It's not right"

E|-----------------|-----------------|-----------------|-----------------|
B|-----------------|-----------------|-----------------|-----------------|
G|-----------------|-----------------|-----------------|-----------------|
D|-5-5-5-5-5-5-5-5-|-5-5-5-5-5-5-5-5-|-4-4-4-4-4-4-4-4-|-4-4-4-4-4-4-4-4-|
A|-5-5-5-5-5-5-5-5-|-5-5-5-5-5-5-5-5-|-5-5-5-5-5-5-5-5-|-5-5-5-5-5-5-5-5-|
E|-3-3-3-3-3-3-3-3-|-3-3-3-3-3-3-3-3-|-2-2-2-2-2-2-2-2-|-2-2-2-2-2-2-0-2-|
                    "It's not right"


  Fade out with this [3:31]
E|-----------------|-----------------|-----------------|-----------------|
B|-----------------|-----------------|-----------------|-----------------|
G|-----------------|-----------------|-----------------|-----------------|
D|-5-5-5-5-5-5-5-5-|-5-5-5-5-5-5-5-5-|-4-4-4-4-4-4-4-4-|-4-4-4-4-4-4-4-4-|
A|-5-5-5-5-5-5-5-5-|-5-5-5-5-5-5-5-5-|-5-5-5-5-5-5-5-5-|-5-5-5-5-5-5-5-5-|
E|-3-3-3-3-3-3-3-3-|-3-3-3-3-3-3-3-3-|-2-2-2-2-2-2-2-2-|-2-2-2-2-2-2-0-2-|

A second guitar ,(clean), fades with this: [3:31]
E|-----------------|-----------------|-----------------|---------0-2-----|
B|-3---------------|-3---------------|-3---------------|-3-----------3---|
G|-------------2---|-------------2---|-------------2---|---------------2-|
D|-----------------|-----------------|-----------------|-----------------|
A|-----------------|-----------------|-----------------|-----------------|
E|-----------------|-----------------|-----------------|-----------------|


Well that's it. If you have any questions or comments e-mail me.


************************************

| (n)  Ghost note
| h    Hammer-on

************************************

It's very good, but i think that chorus goes like this:
E|-----------------|-----------------|-----------------|-----------------|
B|-----------------|-----------------|-----------------|-----------------|
G|-----------------|-----------------|-----------------|-----------------|
D|-5-5-5-5-5-5-5-5-|-5-5-5-5-5-5-5-5-|-4-4-4-4-4-4-4-4-|-4-4-4-4-4-4-4-4-|
A|-5-5-5-5-5-5-5-5-|-5-5-5-5-5-5-5-5-|-5-5-5-5-5-5-5-5-|-5-5-5-5-5-5-5-5-|
E|-3-3-3-3-3-3-3-3-|-3-3-3-3-3-3-3-0-|-2-2-2-2-2-2-2-2-|-2-2-2-2-2-0-0-0-|

https://tabs.ultimate-guitar.com/b/blink-182/stay_together_for_the_kids_ver6_tab_808571id_02042009date.htm