Tablature guitare : Blink-182 – Roller Coaster

artist: blink 182
album: toypaj
song:roller coaster
tuning-standard

[intro] w/dist
e|----------------------------------------------------------|
B|----------------------------------------------------------|
G|--6--6--7---6-----6--6-7---6------------------------------|
D|----7---------7-7--7--------7--7---7----------------------|
A|---------------0--------------0----0----------------------|
E|----------------------------------------------------------|

   gtr semi clean                            let ring
e|----------------------------------------------------------|
B|----------------------------------------------------------|
G|----------------------------------------------------------|
D|--------7-----7-----7------7------------------------------|
A|-----0-0---0-0---0-0----0-0-------------------------------|
E|----------------------------------------------------------|

e|------------------------------------------------------------|
B|------------------------------------------------------------|
G|------------------------------------------------------------|
D|-----7-----7-----7-----7-----7-----7-----7------7-----------|
A|--0-0---0-0---0-0---0-0---0-0---0-0---0-0---0-0-------------|
E|------------------------------------------------------------|

e|------------------------------------------------------------|
B|------------------------------------------------------------|
G|------------------------------------------------------------|
D|------7-----7-----7-----7-----7-----7----7----7-------------|
A|---5-5---5-5---5-5---5-5--------------5-5--5-5--------------|
E|---------------------------7-7---7-7------------------------|

[interlude] half time feel gtr w/dist
e|-----------------------------------------------------------|
B|-----------------------------------------------------------|
G|-----------------------------------------------------------|
D|-----------------------------------------------------------|
A|-5---4-0-4-5-4-0-0-0-0-0-0-4-0-4-5-4-0-0-0-0-0-0-----------|
E|-----------------------------------------------------------|

e|-----------------------------------------------------------|
B|-----------------------------------------------------------|
G|-----------------------------------------------------------|
D|-----------------------------------------------------------|
A|-4-0-4-5-4-0-02-4-0-0-2-4-0-4-5-4-0-0-0-0-0-0--------------|
E|-----------------------------------------------------------|

[verse]            let ring
e|-----------------------------------------------------------|
B|-----------------------------------------------------------|
G|-----------------------------------------------------------|
D|--2--2-2-2-2-2-2---2---------------------------------------|
A|--0--0-0-0-0-0-0---0---------------------------------------|
E|-----------------------------------------------------------|
play 3 times ^

 let ring
e|-----------------------------------------------------------|
B|-----------------------------------------------------------|
G|-----------------------------------------------------------|
D|--7--------------------------------------------------------|
A|--0--------------------------------------------------------|
E|-----------------------------------------------------------|

[interlude] w/synth effects
e|-----------------------------------------------------------|
B|-----------------------------------------------------------|
G|-----------------------------------------------------------|
D|--7--------------------------------------------------------|
A|--0--------------------------------------------------------|
E|-----------------------------------------------------------|

 bass arr. for gtr.(part below)
e|-----------------------------------------------------------|
B|-----------------------------------------------------------|
G|-----------------------------------------------------------|
D|-----------------------------------------------------------|
A|-----------------------------------------------------------|
E|-5-5-5-5-5-5-5-5-5-5-5-5-5-5-5-5-5-5-5-5-5-5-5-5-5-5-5-5-5-|

e|------------------------------------------------------------|
B|------------------------------------------------------------|
G|------------------------------------------------------------|
D|------------------------------------------------------------|
A|----------------------5-5-5-5-5-5-5-5-5-5-5-5-5-5-5-5-7-----|
E|-0-0-0-0-0-0-0-0-0-0-0--------------------------------------|

 p.s. (part below)
e|------------------------------------------------------------|
B|------------------------------------------------------------|
G|------------------------------------------------------------|
D|------------------------------------------------------------|
A|-5/7--------------------------------------------------------|
E|------------------------------------------------------------|

[outro/chorus] w/synth effects (till end)
e|-----------------------------------------------------------|
B|-----------------------------------------------------------|
G|-----------------------------------------------------------|
D|-7--7--7--7--7--7--7--7--7--7--7--7--7--7--7--7--7--7--7---|
A|-0--0--0--0--0--0--0--0--0--0--0--0--0--0--0--0--0--0--0---|
E|-----------------------------------------------------------|

 (still w/synth effects)
e|-----------------------------------------------------------|
B|-----------------------------------------------------------|
G|-----------------------------------------------------------|
D|-7-7-7-7-7-7-7--7-7-7-7-7--7-7-7-7-7-7-7-7-7-7-7-----------|
A|-0-0-0-0-0-0-0--0-0-0-0-0--5-5-5-5-5-5-5-5-5-5-5-----------|
E|-----------------------------------------------------------|

 w/synth still
e|------------------------------------------------------------|
B|------------------------------------------------------------|
G|------------------------------------------------------------|
D|--7-7-7-7-7-7-7-7-7-7-7-7-7-7-7-7-7-7-7-7-7-7-7-7-7-7-7-7---|
A|--5-5-5-5-5-5-5-5-x-x-x-x-x-xx-x-x-x-x--5-5-5-5-5-5-5-5-5---|
E|------------------7-7-7-7-7-7-7-7-7-7-7---------------------|

 [outro] end synth
e|-----------------------------------------------------------|
B|-----------------------------------------------------------|
G|-6--6--7---6-----------------------------------------------|
D|--7----------7-----7-----7---------------------------------|
A|----------------0--------0---------------------------------|
E|-----------------------------------------------------------|

then the song segues into "reckless abandon" thats the whole song though its pretty easy

https://tabs.ultimate-guitar.com/b/blink-182/roller_coaster_ver6_tab.htm