Tablature guitare : Blink-182 – Online Songs

Online Songs-Blink 182
take off your pants and jacket

[Intro/Verse] just bass
guitar comes in (clean)
e|--------------------------------------------------------------|
B|--------------------------------------------------------------|
G|--------------------------------------------------------------|
D|--------------------------------------------------------------|
A|---4------7---4-----5-----5---5-----4-----7---4-----5-----5---|
E|-5---5------5---5-5---5-5---5---5-5---5-5---5---5-0---0-0---0-|

e|--------------------------------------------------------------|
B|--------------------------------------------------------------|
G|--------------------------------------------------------------|
D|--------------------------------------------------------------|
A|---4-----7---4-----5-----5---5-----4-----7---4---2-ring-------|
E|-5---5-5---5---5-5---5-5---5---5-5---5-5---5---0-0------------|

[Interlude] pm low E string
e|---------------------------------------------------------------|
B|---------------------------------------------------------------|
G|---------------------------------------------------------------|
D|---------------------------------------------------------------|
A|---4-----7---4-----5-----5---5-----4-----7---4-----5-----5---5-|
E|-5---5-5---5---5-5---5-5---5---5-5---5-5---5---0-0---0-0---0---|

e|--------------------------------------------------------------|
B|--------------------------------------------------------------|
G|--------------------------------------------------------------|
D|--------------------------------------------------7--7--7--0--|
A|---4-----7---4-----5-----5---5-----4-----7---4----5--5--5--0--|
E|-5---5-5---5---5-5---5-5---5---5-5---5-5---5---0-0------------|

[Verses] bass
e|--------------------------------------------------------------|
B|--------------------------------------------------------------|
G|--------------------------------------------------------------|
D|-7------------------------------------------------------------|
A|-x----ring----------------------------------------------------|
E|-5------------------------------------------------------------|

pick slide x~~~~~\x~~~~~~\

[Chorus 1] (x2)
e|--------------------------------------------------------------|
B|--------------------------------------------------------------|
G|--------------------------------------------------------------|
D|-7--7--7-7-7-7---------------9--9--9-9-9-7-7--7--7-7-7-7------|
A|-5--5--5-5-5-5-7--7--7-7-7-7-7--7--7-7-7-5-5--5--5-5-5-5------|
E|---------------5--5--5-5-5-5----------------------------------|

[Chorus 2]
e|--------------------------------------------------------------|
B|--------------------------------------------------------------|
G|--------------------------------------------------------------|
D|-7--7--7-7-7-7---------------------9-9-9-9-7--7--7-7-7-7------|
A|-5--5--5-5-5-5-7--7--7-7-7-7-pause-7-7-7-7-5--5--5-5-5-5------|
E|---------------5--5--5-5-5-5----------------------------------|

[Bridge]
e|---------------------------------------------------------------|
B|---------------------------------------------------------------|
G|---------------------------------------------------------------|
D|-----------------7--7------------------------------------------|
A|-4--4------------5--5------------7-7-7-7-7-7-7---2-2-2-2-2-2-2-|
E|-2--2----------------------------5-5-5-5-5-5-5-0-0-0-0-0-0-0-0-|

e|---------------------------------------------------------------|
B|---------------------------------------------------------------|
G|---------------------------------------------------------------|
D|-----------------7-7-7-7-7-7-7-0-------------------------------|
A|-4-4-4-4-4-4-4-0-5-5-5-5-5-5-5-0-7-7-7-7-7-7-7-7-2-2-2-2-2-2-2-|
E|-2-2-2-2-2-2-2-------------------5-5-5-5-5-5-5-5-0-0-0-0-0-0-0-|

[outro bar]
e|--------------------------------------------------------------|
B|--------------------------------------------------------------|
G|--------------------------------------------------------------|
D|-------------7------------------------------------------------|
A|-4--4--4-4---5-let-ring---------------------------------------|
E|-2--2--2-2-0--------------------------------------------------|

************************************

| x  Dead note

************************************

https://tabs.ultimate-guitar.com/b/blink-182/online_songs_ver5_tab.htm