Tablature guitare : Blink-182 – Obvious

Blink-182
Obvious
Tuning (C#-G#-E-B-F#-C#) 

[Intro]
C#|---------------------------------------------------------|
F#|---------------------------------------------------------|
B |---------------------------------------------------------|
E |--5-5-55-55-5--------------------------------------------| 
G#|-2-2-33-33-3---------------------------------------------| x6
C#|-0-0-33-33-3---------------------------------------------|


[Verse]
C#|---------------------------------------------------------|
F#|---------------------------------------------------------|
B |---------------------------------------------------------|
E |-5~---------5~-------------------------------------------|
G#|-2~---------3~-------------------------------------------| x2
C#|-0~---------3~-------------------------------------------|

[Chorus]
C#|---------------------------------------------------------|
F#|---------------------------------------------------------|
B |---------------------------------------------------------|
E |---------------------------------------------------------|
G#|----222-000-333------------------------------------------| x2
C#|-3~-------------000-2222-3333333333333333----------------|

[Instrumental]
C#|---------------------------------------------------------|
F#|---------------------------------------------------------|
B |---------------------------------------------------------|
E |-5-5-55-55-5---------------------------------------------| 
G#|-2-2-33-33-3---------------------------------------------| x4
C#|-0-0-33-33-3---------------------------------------------|
 
[Verse]
C#|---------------------------------------------------------|
F#|---------------------------------------------------------|
B |---------------------------------------------------------|
E |-5~---------5~-------------------------------------------|
G#|-2~---------3~-------------------------------------------| x2
C#|-0~---------3~-------------------------------------------|

[Chorus]
C#|---------------------------------------------------------|
F#|---------------------------------------------------------|
B |---------------------------------------------------------|
E |---------------------------------------------------------|
G#|----222-000-333------------------------------------------| x4
C#|-3~-------------000-2222-3333333333333333----------------|


C#|---------------------------------------------------------|
F#|---------------------------------------------------------|
B |------555------------------------------------------------|
E |-555--555--222-666-55-66---------------------------------| x6
G#|-555--333--222-666-55-66---------------------------------|
C#|-333-------000-444-33-44---------------------------------|

C#|---------------------------------------------------------|
F#|---------------------------------------------------------|
B |--------------------------------5------------------------|
E |-5---------------5--------------5-(x8)-------------------| x4
G#|-5-(x16)-5-(x16)-5-(x16)-5-(x8)-3------------------------|
C#|-3-------2-------3-------2-------------------------------|

[End On]
C#|---------------------------------------------------------|
F#|---------------------------------------------------------|
B |---------------------------------------------------------|
E |-5~------------------------------------------------------|
G#|-2~------------------------------------------------------| x1
C#|-0~------------------------------------------------------|
 
************************************

| ~  Vibrato 

************************************
Suggest correction

https://tabs.ultimate-guitar.com/b/blink-182/obvious_ver6_tab.htm