Tablature guitare : Blink-182 – Mutt

Mutt-Blink 182
Album:Enema of the State
Tuning:Standard
Tabbed by:WARNINGnimrod12
Email:WARNINGnimrod182@aim.com

   Now just to let you know, the |-7-7h-9-| on the A string in the chorus 
isn't the guitar. It's the bass so I didn't include it in the tab.

   [INTRO] x2
   E|---------------------------------------------------------------------|
   B|---------------------------------------------------------------------|
   G|------6-------6-------6-------6-------6-------6-------6-------6------|
   D|---------7-------7-------7-------7-------7-------7-------7-------7---|
   A|-----------------------------------5-------5-------5-------5---------|
   E|---5-------5-------5-------5-----------------------------------------|

   [VERSE]
   E|-----------------------------------------------------------------|
   B|-----------------------------------------------------------------|
   G|-------2------2------4h6----4h6------6------6------2h4-----2h4---|
   D|----------------------------------------------0-0------0-0-------| x2
   A|---0-0----0-0----0-0----0-0-----4-4----4-4-----------------------|
   E|-----------------------------------------------------------------|
   P.M. * *    * *    * *    * *     * *    * *    * *      * * 

   E|-----------------------------------------------------------------|
   B|-----------------------------------------------------------------|
   G|-----------------------------------------------------------------|
   D|-----------------------------------------------------------------|
   A|---7--7-7-7-7-7-7-7--7-7-7-7-7-7-4--4-4-4-4-4-4-2--2-2-2-2-2-2---|
   E|---5--5-5-5-5-5-5-5--5-5-5-5-5-5-2--2-2-2-2-2-2-0--0-0-0-0-0-0---|

   E|-----------------------------------------------------------------|
   B|-----------------------------------------------------------------|
   G|-----------------------------------------------------------------|
   D|-----------------------------------------------------------------|
   A|---7--7-7-7-7-7-7-7--7-7-7-7-7-7-4--4-4-4-4-4-4-2--2-2-2-2-2-2---|
   E|---5--5-5-5-5-5-5-5--5-5-5-5-5-5-2--2-2-2-2-2-2-0--0-0-0-0-0-0---|

   E|---------------------------------------------------------------------|
   B|---------------------------------------------------------------------|
   G|---------------------------------------------------------------------|
   D|---7-7-7-7-7-7-7-7-7-7-7-7-7-7-7-7-7-7-7-7-7-7-7-7-9-9-9-9-9-9-9-9---|
   A|---5-5-5-5-5-5-5-5-5-5-5-5-5-5-5-5-5-5-5-5-5-5-5-5-7-7-7-7-7-7-7-7---|
   E|---------------------------------------------------------------------|

   [CHORUS] x6
   E|----------------------------------------------------------------|
   B|----------------------------------------------------------------|
   G|------------------------------------------------7--7-7-6--6-6---|
   D|---7--7-7-7-7-7-7-7--7-7-7-7-7-7-9--9-9-9-9-9-9-x--x-x-x--x-x---|
   A|---x--x-x-x-x-x-x-x--x-x-x-x-x-x-x--x-x-x-x-x-x-5--5-5-4--4-4---|
   E|---5--5-5-5-5-5-5-5--5-5-5-5-5-5-7--7-7-7-7-7-7-----------------|

  [INTRO] x2
  [VERSE 2]
  [CHORUS 2] x6

   [BRIDGE]
   E|-----------------------------------------------------------|
   B|-----------------------------------------------------------|
   G|-----------------------------------------------------------|
   D|------------------------------------------------7-7--6-6---| x2
   A|---7-7---------------------------9-9------------5-5--4-4---|
   E|---5-5---------------------------7-7-----------------------|
   P.M. * *                           * *            * *  * * 

  *E|---------------------------------------------------------------------|
  *B|---------------------------------------------------------------------|
  *G|------6-------6-------6-------6-------6-------6-------6-------6------|
  *D|---------7-------7-------7-------7-------7-------7-------7-------7---|
  *A|---------------------------5-------------------------------5---------|
  *E|---5-------5-------7---------------5-------5-------7-----------------|
  
  CHORUS 3 x4

    [OUTRO]
   E|-----------------------------------------------------------|
   B|-----------------------------------------------------------|
   G|-----------------------------------------------------------|
   D|------------------------------------------------7-7--6-6---|
   A|---7-7---------------------------9-9------------5-5--4-4---|
   E|---5-5---------------------------7-7-----------------------|

   E|-----------------------------------------------------------|
   B|-----------------------------------------------------------|
   G|-----------------------------------------------------------|
   D|------------------------------------------------7-7--6-6---|
   A|---7-7---------------------------9-9------------5-5--4-4---|
   E|---5-5---------------------------7-7-----------------------|

   E|-----------------------|
   B|-----------------------|
   G|-----------------------|
   D|---7~------------------|
   A|---7~------------------|
   E|---5~------------------|

   * My best suggestion in the second part of the bridge is:
           -Pointer plays the 5(E string)
           -Middle plays the 6(G string)
           -Pinkie plays the 7(D string)
           -Ring plays the 7(E string)
           -Pointer plays the 5(A string)

    Or you can just play the intro in that part, but i think it sounds
    better that way.

   [ORDER]
   [INTRO] x2
   [VERSE]
   [CHORUS] x6
   [INTRO] x2
   [VERSE] 2
   [CHORUS] 2 x6
   [BRIDGE] x2
   [CHORUS] 3 x4
   [OUTRO]

************************************

| h  Hammer-on
| x  Dead note
| ~  Vibrato

************************************

https://tabs.ultimate-guitar.com/b/blink-182/mutt_ver7_tab.htm