Tablature guitare : Blink-182 – Mms

[Intro]

(played fast for 4or 5 times with hammer ons and stuff

e|-0-4^0-5^0-7-5-4-5^4^0-0-2^0-4^0-5^4-5^4^2^0-|
B|---------------------------------------------|
G|---------------------------------------------|
D|---------------------------------------------|
A|---------------------------------------------|
E|---------------------------------------------|


[Verse]

(played twice)
e|---------------------------------------------------------|
B|---------------------------------------------------------|
G|---9--9--9--9---9--9--9--9---9---9---9---9---9--9--9---9-|
D|---------------------------6---6---6---6---7--7--7---7---|
A|-7--7--7--7---9--9--9--9---------------------------------|
E|---------------------------------------------------------|


[Fill]

(played twice)
e|---------------------------------------------|
B|---------------------------------------------|
G|-9-9-9-9-9--11-9--11-9--8--9-----------------|
D|-9-9-9-9-9--X--x--x--x--x--9-----------------|
A|-7-7-7-7-7--9--7--9--7--6--7-----------------|
E|---------------------------------------------|


[Chorus]

(played 4 times)
e|------------------------------------------|
B|------------------------------------------|
G|-----------2-2-2-2-2------------4-4-4-4-4-|
D|-4-4-4-4---2-2-2-2-2--2-2-2-2---4-4-4-4-4-|
A|-4-4-4-4---0-0-0-0-0--2-2-2-2---2-2-2-2-2-|
E|-2-2-2-2--------------0-0-0-0-------------|


[Bridge]

e|----------------|
B|----------------|
G|----4--6--------|
D|-2--4--6--7-----|
A|-2--2--4--7-----|
E|-0--------5-----|


[Intro]

(played fast for 4or 5 times with hammer ons and stuff

e|-0-4^0-5^0-7-5-4-5^4^0-0-2^0-4^0-5^4-5^4^2^0-|
B|---------------------------------------------|
G|---------------------------------------------|
D|---------------------------------------------|
A|---------------------------------------------|
E|---------------------------------------------|


[Verse]

(played twice)
e|---------------------------------------------------------|
B|---------------------------------------------------------|
G|---9--9--9--9---9--9--9--9---9---9---9---9---9--9--9---9-|
D|---------------------------6---6---6---6---7--7--7---7---|
A|-7--7--7--7---9--9--9--9---------------------------------|
E|---------------------------------------------------------|


[Fill]

(played twice)
e|---------------------------------------------|
B|---------------------------------------------|
G|-9-9-9-9-9--11-9--11-9--8--9-----------------|
D|-9-9-9-9-9--X--x--x--x--x--9-----------------|
A|-7-7-7-7-7--9--7--9--7--6--7-----------------|
E|---------------------------------------------|


[Chorus]

(played 4 times)
e|------------------------------------------|
B|------------------------------------------|
G|-----------2-2-2-2-2------------4-4-4-4-4-|
D|-4-4-4-4---2-2-2-2-2--2-2-2-2---4-4-4-4-4-|
A|-4-4-4-4---0-0-0-0-0--2-2-2-2---2-2-2-2-2-|
E|-2-2-2-2--------------0-0-0-0-------------|


[Bridge]

(played twice)
e|----------------|
B|----------------|
G|----4--6--------|
D|-2--4--6--7-----|
A|-2--2--4--7-----|
E|-0--------5-----|

then repeat this chord for a while
e|---
B|---
G|-9-
D|-9-
A|-7-
E|---

Then end with the intro and the bridge in the background

https://tabs.ultimate-guitar.com/b/blink-182/mms_ver2_tab.htm