Tablature guitare : Blink-182 – Josie

this is my favorite blink 182 song josie:

josie:

[Intro]

e:--------------|
B:--------------|
G:----4---------|
D:----4----12x--|
A:----2---------|
E:--------------|


[Verse] x2

e:-----------------------------------------------------------------|
b:-----------------------------------------------------------------|
G:-4-4-4-4-4-4-4-4-------------------------------------------------|
D:-4-4-4-4-4-4-4-4-4-4-4-4-4-4-4-4-2-2-2-2-2-2-2-2-2-2-2-2-2-2-2-2-|
A:-2-2-2-2-2-2-2-2-4-4-4-4-4-4-4-4-2-2-2-2-2-2-2-2-2-2-2-2-2-2-2-2-|
E:-----------------2-2-2-2-2-2-2-2-0-0-0-0-0-0-0-0-0-0-0-0-0-0-0-0-|

e:-------------------------------------------------------------------|
B:-------------------------------------------------------------------|
G:-4-4-4-4-4-4-4-4-6-6-6-6-6-6-6-6-9-9-9-9-9-9-9-9-9-9-9-9-9-9-9-9-9-|
D:-4-4-4-4-4-4-4-4-6-6-6-6-6-6-6-6-9-9-9-9-9-9-9-9-9-9-9-9-9-9-9-9-9-|
A:-2-2-2-2-2-2-2-2-4-4-4-4-4-4-4-4-7-7-7-7-7-7-7-7-7-7-7-7-7-7-7-7-7-|
E:-------------------------------------------------------------------|


[Chorus]

part 1: And when i feel like.
e:-----------------------------------------------------------------|
B:-----------------------------------------------------------------|
G:---------------------------------4-4-4-4-4-4-4-4-4-4-4-4-4-4-4-4-|
D:-4-4-4-4-4-4-4-4-2-2-2-2-2-2-2-2-4-4-4-4-4-4-4-4-4-4-4-4-4-4-4-4-|
A:-4-4-4-4-4-4-4-4-2-2-2-2-2-2-2-2-2-2-2-2-2-2-2-2-2-2-2-2-2-2-2-2-|
E:-2-2-2-2-2-2-2-2-0-0-0-0-0-0-0-0---------------------------------|

part 2: i show up at 3 a.m............
e:------------------------------------------------------------------|
B:------------------------------------------------------------------|
G:-----------------6-6-6-6-6-6-6-6----------------------------------|
D:-4-4-4-4-4-4-4-4-6-6-6-6-6-6-6-6-2-2-2-2-2-2-2-2-2-2-2-2-2-2-2-2--|
A:-4-4-4-4-4-4-4-4-4-4-4-4-4-4-4-4-2-2-2-2-2-2-2-2-2-2-2-2-2-2-2-2--|
E:-2-2-2-2-2-2-2-2-----------------0-0-0-0-0-0-0-0-0-0-0-0-0-0-0-0--|


[Chorus 2]

i know that everything.............
e:--------------------------------------------------------------------|
B:--------------------------------------------------------------------|
G:4-4-4-4-4-4-4-4-----------------------------------------------------|
D:4-4-4-4-4-4-4-4--4-4-4-4-4-4-4-4-2-2-2-2-2-2-2-2-6-6-6-6-4-4-4-4----|
A:2-2-2-2-2-2-2-2--4-4-4-4-4-4-4-4-2-2-2-2-2-2-2-2-6-6-6-6-4-4-4-4----|
E:-----------------2-2-2-2-2-2-2-2-0-0-0-0-0-0-0-0-4-4-4-4-2-2-2-2----|

lars b



************************************

| x  Dead note

************************************

https://tabs.ultimate-guitar.com/b/blink-182/josie_ver2_tab.htm