Tablature guitare : Blink-182 – Going Away To College

Song: Going Away to College
Artist: Blink 182
Tabbed by: Andrew (kraftkid87@hotmail.com)
CAPO ON 2ND FRET
I downloaded a live performance of this song, and Tom uses a capo on the second fret. Period.
All notes relative to capo-----i.e, what the tab says is 6 is really 8 on the guitar,
but it’s six in relation to the capo….

[Intro] pt. 1 clean—Play two times

E--------------------------I    E-------------------------------|
B--------------------------I    B-------------------------------|
G----6-6-6-6-6-------------I    G--6-6-6-6-6-4-4-4-4-4----------|
D----7-7-7-7-7---9-9-9-9-9—Ix2  D--0-0-0-0-0-0-0-0-0-0----------|     x2
A----0-0-0-0-0---0-0-0-0-0—I    A--0-0-0-0-0-0-0-0-0-0----------|
E----0-0-0-0-0---0-0-0-0-0—I    E-------------------------------|

Intro pt. 2
Kick in gain
E-----------------------------------------------------------------------------|
B-----------------------------------------------------------------------------|
G------------------6-----------------6-----------------6----------------------|
D---------7-----------------7-----------------7------------------9--------9---|
A----0-0-----0-0----0-0------0-0-----0-0-----0-0-------7-7-----7-7------------|
E-----------------------------------------------------------------------------|
P.M=================================================

play 2x then end on

E-------------|
B-------------|
G---2~--------|
D---2~--------|
A---0~--------|
E-------------|

[Prechorus]
(Won’t forget you, I’ll write you once a week she said)

E---------------------------------------------------------------------------|
B---------------------------------------------------------------------------|
G-----2-2-2-2----7-7-7-7/-9-9-9-9-------------------------------------------|
D-----2-2-2-2----7-7-7-7/-9-9-9-9-------------------------------------------|
A-----0-0-0-0----5-5-5-5/-7-7-7-7-------------------------------------------|
E---------------------------------------------------------------------------|

E---------------------------------------------------------------------------|
B---------------------------------------------------------------------------|
G---------------------------------------------------------------------------|
D--------7------7-----7------7------7------7-------9-------0----------------|
A---0-0---0-0---0-0---0-0----0-0---0-0-----0-0----0-0-----------------------|
E---------------------------------------------------------------------------|
P.M===============================================

Play Prechorus

[Chorus]
(I haven’t been this scared, in a long time)

E------------------------------------------------------------------------|
B------------------------------------------------------------------------|
G----6-6-6-6-6-6-7-7-7-7-7-7--2-2-2-2-2-2--------------------------------|
D----x-x-x-x-x-x-x-x-x-x-x-x--2-2-2-2-2-2-2-2-2-2-2-2--------------------|
A----4-4-4-4-4-4-5-5-5-5-5-5--0-0-0-0-0-0-2-2-2-2-2-2--------------------|
E---------------------------------------------------0-0-0-0-0-0----------|

Back to intro pt. 1

Then Chorus

************************************

| ~  Vibrato
| /  Slide up
| x  Dead note

************************************

https://tabs.ultimate-guitar.com/b/blink-182/going_away_to_college_ver5_tab.htm

 

Blink-182 - Going Away To College

This is, as far as I know, the only right version of this song. The frustration.
Anyway, enjoy.

Capo on 2nd fret. All notes and chords relative to capo.
  
  (w/clean tone)
    A             Asus2           A                Asus2

E |-x---x---x-x-x-x---x-x---x-x-x-x--|-x-x---x-x-x-x---x-x---x-x-x-x----|
B |-x---x---x-x-x-x---x-x---x-x-x-x--|-x-x---x-x-x-x---x-x---x-x-x-x----|
G |-6---6---6-6-6-x---x-x---x-x-x-6--|-6-6---6-6-6-x---x-x---x-x-x-x----|
D |-7---7---7-7-7-9---9-9---9-9-9-7--|-7-7---7-7-7-9---9-9---9-9-9-9----|
A |-0---0---0-0-0-0---0-0---0-0-0-0--|-0-0---0-0-0-0---0-0---0-0-0-0----|
E |-x---x---x-x-x-x---x-x---x-x-x-x--|-x-x---x-x-x-x---x-x---x-x-x-x----|
  
    Dmaj7         D6              Dmaj7            D6

E |-x---x---x-x-x-x---x-x---x-x-x-x--|-x-x---x-x-x-x---x-x---x-x-x-x----|
B |-2---2---2-2-2-x---x-x---x-x-x-2--|-2-2---2-2-2-x---x-x---x-x-x-x----|
G |-2---2---2-2-2-4---4-4---4-4-4-2--|-2-2---2-2-2-4---4-4---4-4-4-4----|
D |-0---0---0-0-0-0---0-0---0-0-0-0--|-0-0---0-0-0-0---0-0---0-0-0-0----|
A |-x---x---x-x-x-x---x-x---x-x-x-x--|-x-x---x-x-x-x---x-x---x-x-x-x----|
E |-x---x---x-x-x-x---x-x---x-x-x-x--|-x-x---x-x-x-x---x-x---x-x-x-x----

    A             Asus2           A                Asus2
 
E |-x---x---x-x-x-x---x-x---x-x-x-x--|-x-x---x-x-x-x---x-x---x-x-x-x----|
B |-x---x---x-x-x-x---x-x---x-x-x-x--|-x-x---x-x-x-x---x-x---x-x-x-x----|
G |-6---6---6-6-6-x---x-x---x-x-x-6--|-6-6---6-6-6-x---x-x---x-x-x-x----|
D |-7---7---7-7-7-9---9-9---9-9-9-7--|-7-7---7-7-7-9---9-9---9-9-9-9----|
A |-0---0---0-0-0-0---0-0---0-0-0-0--|-0-0---0-0-0-0---0-0---0-0-0-0----|
E |-x---x---x-x-x-x---x-x---x-x-x-x--|-x-x---x-x-x-x---x-x---x-x-x-x----|

     Dmaj7        D6              Dmaj7            D6

E |-x---x---x-x-x-x---x-x---x-x-x-x--|-x-x---x-x-x-x--------------------|
B |-2---2---2-2-2-x---x-x---x-x-x-2--|-2-2---2-2-2-x--------------------|
G |-2---2---2-2-2-4---4-4---4-4-4-2--|-2-2---2-2-2-4-----(4)-----(4)----|
D |-0---0---0-0-0-0---0-0---0-0-0-0--|-0-0---0-0-0-0-----(0)-----(0)----|
A |-x---x---x-x-x-x---x-x---x-x-x-x--|-x-x---x-x-x-x--------------------|
E |-x---x---x-x-x-x---x-x---x-x-x-x--|-x-x---x-x-x-x--------------------|

  (w/distortion)
     A                                 D               E

E |----------------------------------|----------------------------------|
B |----------------------------------|----------------------------------|
G |-------------6---------------6----|-------------6--------------------|
D |-----7---------------7------------|-----7---------------9-------9----|
A |-0-0-----0-0-----0-0-----0-0------|-5-5-----5-5-----7-7-----7-7------|
E |----------------------------------|----------------------------------|

    A                                  D               E

E |----------------------------------|----------------------------------|
B |----------------------------------|----------------------------------|
G |-------------6---------------6----|-------------6--------------------|
D |-----7---------------7------------|-----7---------------9-------9----|
A |-0-0-----0-0-----0-0-----0-0------|-5-5-----5-5-----7-7-----7-7------|
E |----------------------------------|----------------------------------|

    A

E |----------------------------------|----------------------------------|
B |----------------------------------|----R-----------------------------|
G |----------------------------------|-----E---X3-----------------------|
D |-7------(7)-----(7)-----(7)-------|------S---------------------------|
A |-7------(7)-----(7)-----(7)-------|-------T--------------------------|
E |-5------(5)-----(5)-----(5)-------|----------------------------------|

        A                              D               E              
  
E |----------------------------------|----------------------------------|
B |----------------------------------|----------------------------------|
G |----------------------------------|-7---7-7-7-7-7-7-9---9-9-9-9-9-9--|
D |-----7-------7---7---7-7-7-7-7-7--|-7---7-7-7-7-7-7-9---9-9-9-9-9-9--|
A |-----7-------7---7---7-7-7-7-7-7--|-5---5-5-5-5-5-5-7---7-7-7-7-7-7--|
E |-----5-------5---5---5-5-5-5-5-5--|----------------------------------|

        A                              D               E 

E |----------------------------------|----------------------------------|
B |----------------------------------|----------------------------------|
G |----------------------------------|-7---7-7-7-7-7-7-9---9-9-9-9-9-9--|
D |-----7-------7---7---7-7-7-7-7-7--|-7---7-7-7-7-7-7-9---9-9-9-9-9-9--|
A |-----7-------7---7---7-7-7-7-7-7--|-5---5-5-5-5-5-5-7---7-7-7-7-7-7--|
E |-----5-------5---5---5-5-5-5-5-5--|----------------------------------|

    A                                  D               E

E |----------------------------------|----------------------------------|
B |----------------------------------|----------------------------------|
G |-------------6---------------6----|-------------6--------------------|
D |-----7---------------7------------|-----7---------------9-------9----|
A |-0-0-----0-0-----0-0-----0-0------|-5-5-----5-5-----7-7-----7-7------|
E |----------------------------------|----------------------------------|

    A                                  D               E

E |----------------------------------|----------------------------------|
B |----------------------------------|----------------------------------|
G |-------------6---------------6----|-------------6--------------------|
D |-----7---------------7------------|-----7---------------9-------9----|
A |-0-0-----0-0-----0-0-----0-0------|-5-5-----5-5-----7-7-----7-7------|
E |----------------------------------|----------------------------------|

    A

E |----------------------------------|----------------------------------|
B |----------------------------------|----R-----------------------------|
G |----------------------------------|-----E---X3-----------------------|
D |-7------(7)-----(7)-----(7)-------|------S---------------------------|
A |-7------(7)-----(7)-----(7)-------|-------T--------------------------|
E |-5------(5)-----(5)-----(5)-------|----------------------------------|

        A                              D               E              
  
E |----------------------------------|----------------------------------|
B |----------------------------------|----------------------------------|
G |----------------------------------|-7---7-7-7-7-7-7-9---9-9-9-9-9-9--|
D |-----7-------7---7---7-7-7-7-7-7--|-7---7-7-7-7-7-7-9---9-9-9-9-9-9--|
A |-----7-------7---7---7-7-7-7-7-7--|-5---5-5-5-5-5-5-7---7-7-7-7-7-7--|
E |-----5-------5---5---5-5-5-5-5-5--|----------------------------------|

        A                              D               E              
  
E |----------------------------------|----------------------------------|
B |----------------------------------|----------------------------------|
G |----------------------------------|-7---7-7-7-7-7-7-9---9-9-9-9-9-9--|
D |-----7-------7---7---7-7-7-7-7-7--|-7---7-7-7-7-7-7-9---9-9-9-9-9-9--|
A |-----7-------7---7---7-7-7-7-7-7--|-5---5-5-5-5-5-5-7---7-7-7-7-7-7--|
E |-----5-------5---5---5-5-5-5-5-5--|----------------------------------|

    F#min           D                  A               E   

E |----------------------------------|----------------------------------|
B |----------------------------------|----------------------------------|
G |-6---6-6-6-6-6-6-7---7-7-7-7-7-7--|----------------------------------|
D |-x---x-x-x-x-x-x-7---7-7-7-7-7-7--|-7---7-7-7-7-7-7-2---2-2-2-2-2-2--|
A |-4---4-4-4-4-4-4-5---5-5-5-5-5-5--|-7---7-7-7-7-7-7-2---2-2-2-2-2-2--|
E |----------------------------------|-5---5-5-5-5-5-5-0---0-0-0-0-0-0--|

    F#min           D                  A               E   

E |----------------------------------|----------------------------------|
B |----------------------------------|----------------------------------|
G |-6---6-6-6-6-6-6-7---7-7-7-7-7-7--|----------------------------------|
D |-x---x-x-x-x-x-x-7---7-7-7-7-7-7--|-7---7-7-7-7-7-7-2---2-2-2-2-2-2--|
A |-4---4-4-4-4-4-4-5---5-5-5-5-5-5--|-7---7-7-7-7-7-7-2---2-2-2-2-2-2--|
E |----------------------------------|-5---5-5-5-5-5-5-0---0-0-0-0-0-0--|

    F#min           D                  A               E   

E |----------------------------------|----------------------------------|
B |----------------------------------|----------------------------------|
G |-6---6-6-6-6-6-6-7---7-7-7-7-7-7--|----------------------------------|
D |-x---x-x-x-x-x-x-7---7-7-7-7-7-7--|-7---7-7-7-7-7-7-2---2-2-2-2-2-2--|
A |-4---4-4-4-4-4-4-5---5-5-5-5-5-5--|-7---7-7-7-7-7-7-2---2-2-2-2-2-2--|
E |----------------------------------|-5---5-5-5-5-5-5-0---0-0-0-0-0-0--|

    F#min           D                  A               E

E |----------------------------------|----------------------------------|
B |----------------------------------|----------------------------------|
G |-6---6-6-6-6-6-6-7---7-7-7-7-7-7--|----------------------------------|
D |-x---x-x-x-x-x-x-7---7-7-7-7-7-7--|-7---7-7-7-7-7-7-2-----(2)--------|
A |-4---4-4-4-4-4-4-5---5-5-5-5-5-5--|-7---7-7-7-7-7-7-2-----(2)--------|
E |----------------------------------|-5---5-5-5-5-5-5-0-----(0)--------|

    A                                  D               E

E |----------------------------------|----------------------------------|
B |----------------------------------|----------------------------------|
G |-------------6---------------6----|-------------6--------------------|
D |-----7---------------7------------|-----7---------------9-------9----|
A |-0-0-----0-0-----0-0-----0-0------|-5-5-----5-5-----7-7-----7-7------|
E |----------------------------------|----------------------------------|

    A                                  D               E

E |----------------------------------|----------------------------------|
B |----------------------------------|----------------------------------|
G |-------------6---------------6----|-------------6--------------------|
D |-----7---------------7------------|-----7---------------9-------9----|
A |-0-0-----0-0-----0-0-----0-0------|-5-5-----5-5-----7-7-----7-7------|
E |----------------------------------|----------------------------------|

    A                                  D               E

E |----------------------------------|----------------------------------|
B |----------------------------------|----------------------------------|
G |-----6-------6-------6-------6----|-----6-------6-------7------------|
D |----------------------------------|-----------------------------7----|
A |-0-0-----0-0-----0-0-----0-0------|-5-5-----5-5-----7-7-----7-7------|
E |----------------------------------|----------------------------------|
P.M ...     ...     ...     ...        ...     ...     ...     ...
    
     A                                 D               E

E |----------------------------------|----------------------------------|
B |----------------------------------|----------------------------------|
G |-----6-------6-------6-------6----|-----6-------6-------7------------|
D |----------------------------------|-----------------------------7----|
A |-0-0-----0-0-----0-0-----0-0------|-5-5-----5-5-----7-7-----7-7------|
E |----------------------------------|----------------------------------|
P.M ...     ...     ...     ...        ...     ...     ...     ...

         A                             D               E              
  
E |----------------------------------|----------------------------------|
B |----------------------------------|----------------------------------|
G |----------------------------------|-7---7-7-7-7-7-7-9---9-9-9-9-9-9--|
D |-----7-------7---7---7-7-7-7-7-7--|-7---7-7-7-7-7-7-9---9-9-9-9-9-9--|
A |-----7-------7---7---7-7-7-7-7-7--|-5---5-5-5-5-5-5-7---7-7-7-7-7-7--|
E |-----5-------5---5---5-5-5-5-5-5--|----------------------------------|

        A                              D               E 

E |----------------------------------|----------------------------------|
B |----------------------------------|----------------------------------|
G |----------------------------------|-7---7-7-7-7-7-7-9---9-9-9-9-9-9--|
D |-----7-------7---7---7-7-7-7-7-7--|-7---7-7-7-7-7-7-9---9-9-9-9-9-9--|
A |-----7-------7---7---7-7-7-7-7-7--|-5---5-5-5-5-5-5-7---7-7-7-7-7-7--|
E |-----5-------5---5---5-5-5-5-5-5--|----------------------------------|

    F#min           D                  A               E   

E |----------------------------------|----------------------------------|
B |----------------------------------|----------------------------------|
G |-6---6-6-6-6-6-6-7---7-7-7-7-7-7--|----------------------------------|
D |-x---x-x-x-x-x-x-7---7-7-7-7-7-7--|-7---7-7-7-7-7-7-2---2-2-2-2-2-2--|
A |-4---4-4-4-4-4-4-5---5-5-5-5-5-5--|-7---7-7-7-7-7-7-2---2-2-2-2-2-2--|
E |----------------------------------|-5---5-5-5-5-5-5-0---0-0-0-0-0-0--|
     
    F#min           D                  A               E   

E |----------------------------------|----------------------------------|
B |----------------------------------|----------------------------------|
G |-6---6-6-6-6-6-6-7---7-7-7-7-7-7--|----------------------------------|
D |-x---x-x-x-x-x-x-7---7-7-7-7-7-7--|-7---7-7-7-7-7-7-2---2-2-2-2-2-2--|
A |-4---4-4-4-4-4-4-5---5-5-5-5-5-5--|-7---7-7-7-7-7-7-2---2-2-2-2-2-2--|
E |----------------------------------|-5---5-5-5-5-5-5-0---0-0-0-0-0-0--|

    F#min           D                  A               E   

E |----------------------------------|----------------------------------|
B |----------------------------------|----------------------------------|
G |-6---6-6-6-6-6-6-7---7-7-7-7-7-7--|----------------------------------|
D |-x---x-x-x-x-x-x-7---7-7-7-7-7-7--|-7---7-7-7-7-7-7-2---2-2-2-2-2-2--|
A |-4---4-4-4-4-4-4-5---5-5-5-5-5-5--|-7---7-7-7-7-7-7-2---2-2-2-2-2-2--|
E |----------------------------------|-5---5-5-5-5-5-5-0---0-0-0-0-0-0--|

    F#min           D                  A               E

E |----------------------------------|----------------------------------|
B |----------------------------------|----------------------------------|
G |-6---6-6-6-6-6-6-7---7-7-7-7-7-7--|----------------------------------|
D |-x---x-x-x-x-x-x-7---7-7-7-7-7-7--|-7---7-7-7-7-7-7-2-----(2)--------|
A |-4---4-4-4-4-4-4-5---5-5-5-5-5-5--|-7---7-7-7-7-7-7-2-----(2)--------|
E |----------------------------------|-5---5-5-5-5-5-5-0-----(0)--------|

    (E)

E |----------------|
B |----------------|
G |----------------|
D |-(2)-----(2)----|
A |-(2)-----(2)----|
E |-(0)-----(0)----|

  (w/clean tone)
    A             Asus2           A                Asus2

E |-x---x---x-x-x-x---x-x---x-x-x-x--|-x-x---x-x-x-x---x-x---x-x-x-x----|
B |-x---x---x-x-x-x---x-x---x-x-x-x--|-x-x---x-x-x-x---x-x---x-x-x-x----|
G |-6---6---6-6-6-x---x-x---x-x-x-6--|-6-6---6-6-6-x---x-x---x-x-x-x----|
D |-7---7---7-7-7-9---9-9---9-9-9-7--|-7-7---7-7-7-9---9-9---9-9-9-9----|
A |-0---0---0-0-0-0---0-0---0-0-0-0--|-0-0---0-0-0-0---0-0---0-0-0-0----|
E |-x---x---x-x-x-x---x-x---x-x-x-x--|-x-x---x-x-x-x---x-x---x-x-x-x----|
  
    Dmaj7         D6              Dmaj7            D6

E |-x---x---x-x-x-x---x-x---x-x-x-x--|-x-x---x-x-x-x---x-x---x-x-x-x----|
B |-2---2---2-2-2-x---x-x---x-x-x-2--|-2-2---2-2-2-x---x-x---x-x-x-x----|
G |-2---2---2-2-2-4---4-4---4-4-4-2--|-2-2---2-2-2-4---4-4---4-4-4-4----|
D |-0---0---0-0-0-0---0-0---0-0-0-0--|-0-0---0-0-0-0---0-0---0-0-0-0----|
A |-x---x---x-x-x-x---x-x---x-x-x-x--|-x-x---x-x-x-x---x-x---x-x-x-x----|
E |-x---x---x-x-x-x---x-x---x-x-x-x--|-x-x---x-x-x-x---x-x---x-x-x-x----|

    A             Asus2           A                Asus2

E |-x---x---x-x-x-x---x-x---x-x-x-x--|-x-x---x-x-x-x---x-x---x-x-x-x----|
B |-x---x---x-x-x-x---x-x---x-x-x-x--|-x-x---x-x-x-x---x-x---x-x-x-x----|
G |-6---6---6-6-6-x---x-x---x-x-x-6--|-6-6---6-6-6-x---x-x---x-x-x-x----|
D |-7---7---7-7-7-9---9-9---9-9-9-7--|-7-7---7-7-7-9---9-9---9-9-9-9----|
A |-0---0---0-0-0-0---0-0---0-0-0-0--|-0-0---0-0-0-0---0-0---0-0-0-0----|
E |-x---x---x-x-x-x---x-x---x-x-x-x--|-x-x---x-x-x-x---x-x---x-x-x-x----|
  
    Dmaj7         D6              Dmaj7            D6

E |-x---x---x-x-x-x---x-x---x-x-x-x--|-x-x---x-x-x-x---x-x---x-x-x-x----|
B |-2---2---2-2-2-x---x-x---x-x-x-2--|-2-2---2-2-2-x---x-x---x-x-x-x----|
G |-2---2---2-2-2-4---4-4---4-4-4-2--|-2-2---2-2-2-4---4-4---4-4-4-4----|
D |-0---0---0-0-0-0---0-0---0-0-0-0--|-0-0---0-0-0-0---0-0---0-0-0-0----|
A |-x---x---x-x-x-x---x-x---x-x-x-x--|-x-x---x-x-x-x---x-x---x-x-x-x----|
E |-x---x---x-x-x-x---x-x---x-x-x-x--|-x-x---x-x-x-x---x-x---x-x-x-x----|

  (w/distortion)
    F#min           D                  A               E

E |----------------------------------|----------------------------------|
B |----------------------------------|----------------------------------|
G |-6---6-6-6-6-6-6-7---7-7-7-7-7-7--|----------------------------------|
D |-x---x-x-x-x-x-x-7---7-7-7-7-7-7--|-7---7-7-7-7-7-7-2---2-2-2-2-2-2--|
A |-4---4-4-4-4-4-4-5---5-5-5-5-5-5--|-7---7-7-7-7-7-7-2---2-2-2-2-2-2--|
E |----------------------------------|-5---5-5-5-5-5-5-0---0-0-0-0-0-0--|

    F#min           D                  A               E   

E |----------------------------------|----------------------------------|
B |----------------------------------|----------------------------------|
G |-6---6-6-6-6-6-6-7---7-7-7-7-7-7--|----------------------------------|
D |-x---x-x-x-x-x-x-7---7-7-7-7-7-7--|-7---7-7-7-7-7-7-2---2-2-2-2-2-2--|
A |-4---4-4-4-4-4-4-5---5-5-5-5-5-5--|-7---7-7-7-7-7-7-2---2-2-2-2-2-2--|
E |----------------------------------|-5---5-5-5-5-5-5-0---0-0-0-0-0-0--|

    F#min           D                  A               E   

E |----------------------------------|----------------------------------|
B |----------------------------------|----------------------------------|
G |-6---6-6-6-6-6-6-7---7-7-7-7-7-7--|----------------------------------|
D |-x---x-x-x-x-x-x-7---7-7-7-7-7-7--|-7---7-7-7-7-7-7-2---2-2-2-2-2-2--|
A |-4---4-4-4-4-4-4-5---5-5-5-5-5-5--|-7---7-7-7-7-7-7-2---2-2-2-2-2-2--|
E |----------------------------------|-5---5-5-5-5-5-5-0---0-0-0-0-0-0--|

    F#min           D                  A               E

E |----------------------------------|----------------------------------|
B |----------------------------------|----------------------------------|
G |-6---6-6-6-6-6-6-7---7-7-7-7-7-7--|----------------------------------|
D |-x---x-x-x-x-x-x-7---7-7-7-7-7-7--|-7---7-7-7-7-7-7-2-----(2)--------|
A |-4---4-4-4-4-4-4-5---5-5-5-5-5-5--|-7---7-7-7-7-7-7-2-----(2)--------|
E |----------------------------------|-5---5-5-5-5-5-5-0-----(0)--------|

    (E)

E |----------------------------------|----------------------------------|
B |----------------------------------|----------------------------------|
G |----------------------------------|----------------------------------|
D |-(2)------------(2)---------------|-(2)------------------------------|
A |-(2)------------(2)---------------|-(2)------------------------------|

Olly Wharton

born2mesmerise@hotmail.com



************************************

| x    Dead note
| (n)  Ghost note  

************************************

https://tabs.ultimate-guitar.com/b/blink-182/going_away_to_college_ver10_tab.htm

Capo
2nd fret
BAND – BLINK 182
ALBUM – ENEMA OF THE STATE
SONG – GOING AWAY TO COLLEGE
Capo II             This tab is 100% correct.


[Intro] 
e|-------------------------------------------------------------------|
B|------2-2-2-2-2-0---0-0-0-0-2---2-2-2-2-2-0---0-0-0----------------|
G|------2-2-2-2-2-2---2-2-2-2-2---2-2-2-2-2-2---2-2-2-0-0------------|
D|------X-X-X-X-X-X---X-X-X-X-X---X-X-X-X-X-X---X-X-X-0-0------------| x2
A|------0-0-0-0-0-0---0-0-0-0-0---0-0-0-0-0-0---0-0-0-0-0------------|
E|-------------------------------------------------------------------|

e|-------------------------------------------------------------------|
B|------2-2-2-2-2-0--0-0-0-0-0-2--2-2-2-2-2-0--0-0-0-0-2-2-----------|
G|------2-2-2-2-2-2--2-2-2-2-2-2--2-2-2-2-2-2--2-2-2-2-2-2-----------|
D|------0-0-0-0-0-0--0-0-0-0-0-0--0-0-0-0-0-0--0-0-0-0-x-x-----------|
A|-----------------------------------------------------0-0-----------|
E|-------------------------------------------------------------------|

On second time end on this
e|--------------|
B|---0----------|
G|---2----------|
D|---0----------|
A|--------------|
E|--------------|

Riff A x2
e|-------------------------------------------------------------------|
B|-------------------------------------------------------------------|
G|------------6--------------6-------------6-------------------------|
D|-----7-------------7--------------7-------------9-------9----------|
A|-0-0----0-0----0-0-----0-0----5-5----5-5----7-7-----7-7------------|
E|-------------------------------------------------------------------|

[Verse] (Part 1) x2             #HOLD FOR 4 BARS#
e|-------------------------------------------------------------------|
B|-------------------------------------------------------------------|
G|---2---------------------------------------------------------------|
D|---2---------------------------------------------------------------|
A|---0---------------------------------------------------------------|
E|-------------------------------------------------------------------|

[Verse] (Part 2) x2
   N.C.
e|-------------------------------------------------------------------|
B|-------------------------------------------------------------------|
G|------2-2-2--2-2-2-2--7-7-7-7--9-9-9-9-----------------------------|
D|------2-2-2--2-2-2-2--7-7-7-7--9-9-9-9-----------------------------|
A|------0-0-0--0-0-0-0--5-5-5-5--7-7-7-7-----------------------------|
E|-------------------------------------------------------------------|

[Chorus]
e|----------------------------------------------------------------|
B|----------------------------------------------------------------|
G|--6-6-6-6--7-7-7-7----------------------------------------------| x3
D|--6-6-6-6--7-7-7-7--7-7-7-7--2-2-2-2----------------------------|
A|--4-4-4-4--5-5-5-5--7-7-7-7--2-2-2-2----------------------------|
E|--------------------5-5-5-5--0-0-0-0----------------------------|

e|----------------------------------------------------------------|
B|----------------------------------------------------------------|
G|--6-6-6-6--7-7-7-7----------------------------------------------| x1
D|--6-6-6-6--7-7-7-7--7-7-7-7--2----------------------------------|
A|--4-4-4-4--5-5-5-5--7-7-7-7--2----------------------------------|
E|--------------------5-5-5-5--0----------------------------------|

[Verse] (Part 3) x2
PM~~~~~~~~~~~~~~~~~~~~~~~~~~~~~~~~~~~~~~~~~~~~~~~~~~~~~~~~~~~~~~~~~~~
e|-------------------------------------------------------------------|
B|-------------------------------------------------------------------|
G|-----6------6------6------6------6------6------7-------------------|
D|------------------------------------------------------7------------|
A|-0-0----0-0----0-0----0-0----5-5----5-5----7-7----7-7--------------|
E|-------------------------------------------------------------------|

INTRO
RIFF A
VERSE(PART 1)
VERSE(PART 2)
RIFF A
VERSE(PART 1)
VERSE(PART 2)
CHORUS
RIFF A
VERSE(PART 3)
VERSE(PART 2)
CHORUS
INTRO
CHORUS



************************************

| x  Dead note

************************************
Suggest correction


https://tabs.ultimate-guitar.com/b/blink-182/going_away_to_college_ver8_tab.htm