Tablature guitare : Blink-182 – Feeling This

 

----------------------------------------------------------------------------
                             Feeling this - Blink-182
----------------------------------------------------------------------------

Tuning:EADGBe


[Intro]

e|-------------------------------------------------------------------------|
B|-------------------------------------------------------------------------|
G|11\----9-----9-------------9/----13--------------------------------------| x2
D|x------x-----x-------------x-----x---------------------------------------|
A|9-\----7-----7------7------7/----11-----0--------------------------------|
E|--------------------0-------------------0--------------------------------|


[Verse]
                               I'm feeling this
  Got no regret right now...   
e|-------------------------------------------------------------------------|
B|-------------------------------------------------------------------------|
G|11\----9-----9-------------9/----13--------------------------------------|x8
D|x------x-----x-------------x-----x---------------------------------------|
A|9-\----7-----7------7------7/----11------0-------------------------------|
E|--------------------0--------------------0-------------------------------|
   


[Chorus]

  Fate fell short this time...  Place your hand in mine...
e|-------------------------------------------------------------------------|
B|-------------------------------------------------------------------------|
G|-------------------------------------------------------------------------|
D|9-----------------------------9------------------------------------------|
A|7-----------------------------7------------------------------------------|
E|0-----------------------------0------------------------------------------|


[Interlude]

e|-------------------------------------------------------------------------|
B|-------------------------------------------------------------------------|
G|9-9999999-/-111111111111111-/-1313131313131313-/-14141414141414----------|
D|x-xxxxxxx-----x-x-x-x-x-x-x-----x-x-x-x-x-x-x------x-x-x-x-x-x-----------|
A|7-7777777-/-9-9-9-9-9-9-9-9-/-111111111111111--/-12121212121212----------|
E|-------------------------------------------------------------------------|


[Bridge]

Guitar 1

 Look to the past and remember a smile...
e|-------------------------------------------------------------------------|
B|-------------------------------------------------------------------------|
G|99999999----------------------------------99999999-----------------------|
D|9999999999999999111111111111111177777777999999999999999911111111111111117|
A|7777777799999999111111111111111177777777777777779999999911111111111111117|
E|--------777777779-9-9-9-9-9-9-9-55555555--------777777779-9-9-9-9-9-9-9-5|
  P.M.---------------------------------------------------------------------

Guitar 2

e|-------------------------------------------------------------------------|
B|-------------------------------------------------------------------------|
G|-------------------------------------------------------------------------|
D|---6---6-----------------6---6-----------------6---6----------------6--6-|
A|77---7---7777777/999\77---7---7777777/999\77---7--7777777/999\77--7--7--5|
E|-------------------------------------------------------------------------|
 P.M.----------------------------------------------------------------------


[Outro-chorus]

 Fate fell short this time...
e|-------------------------------------------------------------------------|
B|-------------------------------------------------------------------------|
G|9999999------------------------------------------------------------------|x8
D|9999999-9999999---------------7777777------------------------------------|
A|7777777-9999999-1111111111111-7777777------------------------------------|
E|-------0777777709-9-9-9-9-9-905555555------------------------------------|


************************************

| x  Dead note
| /  Slide up
| \  Slide down

************************************

https://tabs.ultimate-guitar.com/b/blink-182/feeling_this_ver8_tab.htm