Tablature guitare : Blink-182 – Enema Of The State

band ; blink 182
album ; enema of the state
tabber ; tomdrocks - Josh Broad


1. Dumpweed.

[Intro]

e|-------------------------------------------------------------------------|
B|-------------------------------------------------------------------------|
G|-------------------------------------------------------------------------|
D|----6-6-7-6-------------6-6-7-6------------6-6-7-6------------6676-9-----|
A|--7-----------0-9-0---7------------0-9---0-----------0-9-0--0---------9--|
E|------------7-------------------7------------------7----------------7----|

[Fill] 

e|--4-0---0--4-0---0--2-0---0-2-0---0---4-0---0--4-0---0--5-0---0--5-0---0-|
B|------0--------0--------0-------0---------0--------0--------0--------0---|
G|-------------------------------------------------------------------------|
D|-------------------------------------------------------------------------|
A|-------------------------------------------------------------------------|
E|-------------------------------------------------------------------------|(x2)

[Verse]

e|------------------------------------------------------------------|
B|------------------------------------------------------------------|
G|------------------------------------------------------------------|
D|----------44444----------4444--22222222-44444-22222222-44444------|
A|-22222222-22222-22222222-2222--00000000-22222-00000000-22222------|
E|-00000000-------00000000------------------------------------------|(x2)
pm  ....... .....  ....... ....   ....... .....  ....... .....

[Intro]

e|-------------------------------------------------------------------------|
B|-------------------------------------------------------------------------|
G|-------------------------------------------------------------------------|
D|----6-6-7-6-------------6-6-7-6------------6-6-7-6------------6676-9-----|
A|--7-----------0-9-0---7------------0-9---0-----------0-9-0--0---------9--|
E|------------7-------------------7------------------7----------------7----|

[Chorus]

e|------------------------------------------------------------------------|
B|------------------------------------------------------------------------|
G|----------44444444-22222222-44444444-----------44444444-22222222--4--4--|
D|-22222222-44444444-22222222-44444444--22222222-44444444-22222222--4--4--|
A|-22222222-22222222-00000000-22222222--22222222-22222222-00000000--2--2--|
E|-00000000-----------------------------00000000--------------------------|

[Fill] 

e|--4-0---0--4-0---0--2-0---0-2-0---0---4-0---0--4-0---0--5-0---0--5-0---0-|
B|------0--------0--------0-------0---------0--------0--------0--------0---|
G|-------------------------------------------------------------------------|
D|-------------------------------------------------------------------------|
A|-------------------------------------------------------------------------|
E|-------------------------------------------------------------------------|(x2)

[Verse]

e|------------------------------------------------------------------|
B|------------------------------------------------------------------|
G|------------------------------------------------------------------|
D|----------44444----------4444--22222222-44444-22222222-44444------|
A|-22222222-22222-22222222-2222--00000000-22222-00000000-22222------|
E|-00000000-------00000000------------------------------------------|
pm  ....... .....  ....... ....   ....... .....  ....... .....

[Intro]

e|-------------------------------------------------------------------------|
B|-------------------------------------------------------------------------|
G|-------------------------------------------------------------------------|
D|----6-6-7-6-------------6-6-7-6------------6-6-7-6------------6676-9-----|
A|--7-----------0-9-0---7------------0-9---0-----------0-9-0--0---------9--|
E|------------7-------------------7------------------7----------------7----|

[Chorus]

e|------------------------------------------------------------------------|
B|------------------------------------------------------------------------|
G|----------44444444-22222222-44444444-----------44444444-22222222--4--4--|
D|-22222222-44444444-22222222-44444444--22222222-44444444-22222222--4--4--|
A|-22222222-22222222-00000000-22222222--22222222-22222222-00000000--2--2--|
E|-00000000-----------------------------00000000--------------------------|(x2)

[Verse]

e|------------------------------------------------------------------|
B|------------------------------------------------------------------|
G|------------------------------------------------------------------|
D|----------44444----------4444--22222222-44444-22222222-44444------|
A|-22222222-22222-22222222-2222--00000000-22222-00000000-22222------|
E|-00000000-------00000000------------------------------------------|(x2)

[Outro]

e|-4-0---0---2-0---0---4-0---0---5-0---0-----|
B|-----0---0-----0---0-----0---0-----0---0---|
G|-------------------------------------------|
D|-------------------------------------------|
A|-------------------------------------------|
E|-------------------------------------------|(x4)


                 
2. Don't leave me

intro (x2)

e|-----------------------------------------------------------------------|
B|-----------------------------------------------------------------------|
G|-------2-2-2-2------7-7-7-7------4-444-7777-9999---------2-------------|
D|-------2-2-2-2------7-7-7-7------4-444-7777-9999---------2-(letring)---|
A|--0000-0-0-0-0-0000-5-5-5-5-5555-2-222-5555-7777-0000----0-------------|
E|-----------------------------------------------------------------------|
pm  ....         ....         ....                 ....

[Verse] ( bass only )

[Chorus]

e|--------------------------------------------------------------------|
B|--------------------------------------------------------------------|
G|--2222-4444-7777-9999--2222-4444-7777-9------2222-4444-7777-9999----|
D|--2222-4444-7777-9999--2222-4444-7777-9------2222-4444-7777-9999----|
A|--0000-2222-5555-7777--0000-2222-5555-7-0000-0000-2222-5555-7777----|
E|--------------------------------------------------------------------|
pm                                        ....

[Chorus] (continued)

e|------------------------|
B|------------------------|
G|--2222-4444-77777777----|
D|--2222-4444-77777777----|
A|--0000-2222-55555555----|
E|------------------------|

intro (again) (x2)

e|----------------------------------------------------------------|
B|----------------------------------------------------------------|
G|--2-2-2-2------7-7-7-7------4-444-7777-9999-----2---------------|
D|--2-2-2-2------7-7-7-7------4-444-7777-9999-----2-(letring)-----|
A|--0-0-0-0-0000-5-5-5-5-5555-2-222-5555-7777-----0---------------|
E|----------------------------------------------------------------|

[Verse] ( bass only )

[Chorus]

e|--------------------------------------------------------------------|
B|--------------------------------------------------------------------|
G|--2222-4444-7777-9999--2222-4444-7777-9------2222-4444-7777-9999----|
D|--2222-4444-7777-9999--2222-4444-7777-9------2222-4444-7777-9999----|
A|--0000-2222-5555-7777--0000-2222-5555-7-0000-0000-2222-5555-7777----|
E|--------------------------------------------------------------------|
pm                                        ....


[Chorus] (continued)

e|--------------------------------------|
B|-----------------------10~~-----------|
G|--2222-4444-77777777----9~~-let ring--|
D|--2222-4444-77777777------------------|
A|--0000-2222-55555555------------------|
E|--------------------------------------|

[Fill]

e|----------------------------------------------------------------------|
B|-----10----10----10----10----10----10---10---10---10---10---10---10---|
G|----------------------------------------------------------------------|
D|--7-7---7-7---7-7---7-7---7-7---7-7---7-7---7-7---7-7---7-7---7-7-----|
A|----------------------------------------------------------------------|
E|----------------------------------------------------------------------|

[Chorus]

e|--------------------------------------------------------------------|
B|--------------------------------------------------------------------|
G|--2222-4444-7777-9999--2222-4444-7777-9------2222-4444-7777-9999----|
D|--2222-4444-7777-9999--2222-4444-7777-9------2222-4444-7777-9999----|
A|--0000-2222-5555-7777--0000-2222-5555-7-0000-0000-2222-5555-7777----|
E|--------------------------------------------------------------------|
pm                                        ....

[Chorus] (continued) & outro

e|-----------------------------------------------------------------|
B|-----------------------------------------------------------------|
G|--2222-4444-77777777-------2-~~-------7-----2~~~~----------------|
D|--2222-4444-77777777-------2-~~-------7-----2~~~~-(let ring)-----|
A|--0000-2222-55555555-------0-~~-------5-----0~~~~----------------|
E|-----------------------------------------------------------------|

          

3. Aliens Exist

[Intro]

e|-----------------------------------------------------|
B|-----------------------------------------------------|
G|-----------------------------------------------------|
D|--------------------------------------------////////-| pick slide
A|--22222222-11111111-2~~~~~~~~---let-ring----////////-|
E|--------------------------------------------////////-|
pm  ........ ........ .

(part b)

e|------------------------------------------------------|
B|------------------------------------------------------|
G|--4-444-4-4-------------------------------------------|
D|--4-444-4-4-2-222-2-2-6-666-6-6-2-222-2-2-------------| (x2)
A|--2-222-2-2-2-222-2-2-6-666-6-6-2-222-2-2-------------|
E|------------0-000-0-0-4-444-4-4-0-000-0-0-------------|

[Verse]

e|---------------------------------------------|
B|---------------------------------------------|
G|--4------------------------------------------|
D|--4------------------------------------------|
A|--2--22222222--------------------------------|
E|--------------22222222-44444444-00000000-----|(x4)
pm     ........ ........ ........ ........

[Chorus]

e|--------------------------------------------|
B|--------------------------------------------|
G|--------------------------------------------|
D|-9-9999999-9-9999999--4-4444444-4-4444444---| 
A|-x-xxxxxxx-x-xxxxxxx--x-xxxxxxx-x-xxxxxxx---|
E|-7-7777777-7-7777777--2-2222222-2-2222222---|(x2)

[Chorus]

e|----------------------------------------------------|
B|----------------------------------------------------|
G|----------------------------------------------------| 
D|--1-1---1-1---1-1---1-1---2-2---2-2---2-2---2-2-----|
A|------2-----2-----2-----2-----2-----2-----2-----2---|
E|----------------------------------------------------|(x2)
pm  . .   . .   . .   . .   . .   . .   . .   . .

continued

e|------------------------------------------------|
B|------------------------------------------------|
G|------------------------4~~~~~~~~---------------|
D|--4~~~~~~~~--2~~~~~~~~--4~~~~~~~~----4---2------|
A|--4~~~~~~~~--2~~~~~~~~--2~~~~~~~~----4---2------|
E|--2~~~~~~~~--0~~~~~~~~---------------2---0------|

[Intro part B]

e|------------------------------------------------------|
B|------------------------------------------------------|
G|--4-444-4-4-------------------------------------------|
D|--4-444-4-4-2-222-2-2-6-666-6-6-2-222-2-2-------------| 
A|--2-222-2-2-2-222-2-2-6-666-6-6-2-222-2-2-------------|
E|------------0-000-0-0-4-444-4-4-0-000-0-0-------------|(x2)

[Verse]

e|---------------------------------------------|
B|---------------------------------------------|
G|--4------------------------------------------|
D|--4------------------------------------------|
A|--2--22222222--------------------------------|
E|--------------22222222-44444444-00000000-----|(x4)
pm     ........ ........ ........ ........

[Chorus]

e|--------------------------------------------|
B|--------------------------------------------|
G|--------------------------------------------|
D|-9-9999999-9-9999999--4-4444444-4-4444444---| 
A|-x-xxxxxxx-x-xxxxxxx--x-xxxxxxx-x-xxxxxxx---|
E|-7-7777777-7-7777777--2-2222222-2-2222222---|(x2)

continued

e|----------------------------------------------------|
B|----------------------------------------------------|
G|----------------------------------------------------| 
D|--1-1---1-1---1-1---1-1---2-2---2-2---2-2---2-2-----|
A|------2-----2-----2-----2-----2-----2-----2-----2---|
E|----------------------------------------------------|(x2)
pm  . .   . .   . .   . .   . .   . .   . .   . .

continued

e|------------------------------------------------|
B|------------------------------------------------|
G|------------------------4~~~~~~~~---------------|
D|--4~~~~~~~~--2~~~~~~~~--4~~~~~~~~----4---2------|
A|--4~~~~~~~~--2~~~~~~~~--2~~~~~~~~----4---2------|
E|--2~~~~~~~~--0~~~~~~~~---------------2---0------|

[Interlude]

e|--------------------------------------------------------------|
B|--------------------------------------------------------------|
G|--44444444-44444444-44444444-44444444-44444444-44444444-------|
D|--xxxxxxxx-xxxxxxxx-xxxxxxxx-xxxxxxxx-xxxxxxxx-xxxxxxxx-------|
A|--22222222-22222222-22222222-22222222-22222222-22222222-------|
E|--------------------------------------------------------------|

e|--------------------------------------------------------------|
B|--------------------------------------------------------------|
G|--44444444-44444444-88888888-88888888-8/66666666-66666666-----|
D|--xxxxxxxx-xxxxxxxx-xxxxxxxx-xxxxxxxx-x/xxxxxxxx-xxxxxxxx-----|
A|--22222222-22222222-66666666-66666666-6/44444444-44444444-----|
E|--------------------------------------------------------------|

e|--------------------------------------------------------------|
B|--------------------------------------------------------------|
G|--99999999-99999999-88888888-88888888-------------------------|
D|--xxxxxxxx-xxxxxxxx-xxxxxxxx-xxxxxxxx-------------------------|
A|--77777777-77777777-66666666-66666666-------------------------|
E|--------------------------------------------------------------|

[Bridge]

e|-----------------------------------------------------------------------|
B|-----------------------------------------------------------------------|
G|-----------------------------------------------------4-444-4-----------|
D|--6-666-6-6-666-6--4-444-4-4-444-4--2-222-2-2-222-2--4-444-4--4-444-4--|
A|--6-666-6-6-666-6--4-444-4-4-444-4--2-222-2-2-222-2--2-222-2--4-444-4--|
E|--4-444-4-4-444-4--2-222-2-2-222-2--0-000-0-0-000-0-----------2-222-2--|(x2)

[Chorus]

e|--------------------------------------------|
B|--------------------------------------------|
G|--------------------------------------------|
D|-9-9999999-9-9999999--4-4444444-4-4444444---| 
A|-x-xxxxxxx-x-xxxxxxx--x-xxxxxxx-x-xxxxxxx---|
E|-7-7777777-7-7777777--2-2222222-2-2222222---|(x2)

continued

e|----------------------------------------------------|
B|----------------------------------------------------|
G|----------------------------------------------------| 
D|--1-1---1-1---1-1---1-1---2-2---2-2---2-2---2-2-----|
A|------2-----2-----2-----2-----2-----2-----2-----2---|
E|----------------------------------------------------|(x2)
pm  . .   . .   . .   . .   . .   . .   . .   . .

continued

e|------------------------------------------------------------------|
B|------------------------------------------------------------------|
G|------------------------4~~~~~~~~------9~~~--4~~~~~~~~~~~~~~~~----|
D|--4~~~~~~~~--2~~~~~~~~--4~~~~~~~~-4~~~-9~~~--4~~~~~~~~~~~~~~~~----|
A|--4~~~~~~~~--2~~~~~~~~--2~~~~~~~~-4~~~-7~~~--2~~~~~~~~~~~~~~~~----|
E|--2~~~~~~~~--0~~~~~~~~------------2~~~----------------------------|



4. Going away to college

[Intro]

e|-------------------------------------------------------------------|
B|--4-4-444-2-2-222-4-4-444-2-2-222-4-4-444-2-2-222-4-4-444-2~~~~----|
G|--4-4-444-4-4-444-4-4-444-4-4-444-4-4-444-4-4-444-4-4-444-4~~~~----|
D|--4-4-444-4-4-444-4-4-444-4-4-444-2-2-222-2-2-222-2-2-222-2--------|~~~-let ring
A|--0-0-000-0-0-000-0-0-000-0-0-000-0-0-000-0-0-000-0-0-000-0~~~~----|
E|-------------------------------------------------------------------|

[Riff A] (x2)

e|------------------------------------------------------------------------|
B|------------------------------------------------------------------------|
G|------------8-----------8------------8-----------8----------------4~~~--|
D|------9-----------9------------9-----------9----------11----11----4~~~--|
A|---------------------------7-7---7-7---7-7---7-7---9-9---9-9------2~~~--|
E|--7-7---7-7---7-7---7-7-------------------------------------------------|

[Verse 1 part A] (bass only)

[Verse 1 part b] 

e|--------------------------------------------------|
B|--------------------------------------------------|
G|--4--4--4-4--99999999-11-11-11-11-11-11-11-11-----|
D|--4--4--4-4--99999999-11-11-11-11-11-11-11-11-----|
A|--2--2--2-2--77777777--9--9--9--9--9--9--9--9-----|
E|--------------------------------------------------|(x2)


[Riff A] 

e|------------------------------------------------------------------------|
B|------------------------------------------------------------------------|
G|------------8-----------8------------8-----------8----------------4~~~--|
D|------9-----------9------------9-----------9----------11----11----4~~~--|
A|---------------------------7-7---7-7---7-7---7-7---9-9---9-9------2~~~--|
E|--7-7---7-7---7-7---7-7-------------------------------------------------|(x2)

[Verse 2]
part a (bass only)

[Verse 2]
part b (x2)

e|--------------------------------------------------|
B|--------------------------------------------------|
G|--4--4--4-4--99999999-11-11-11-11-11-11-11-11-----|
D|--4--4--4-4--99999999-11-11-11-11-11-11-11-11-----|
A|--2--2--2-2--77777777--9--9--9--9--9--9--9--9-----|
E|--------------------------------------------------|

[Chorus]

e|---------------------------------------------|
B|---------------------------------------------|
G|--8-888888-9-999999-4-444444-----------------|
D|--8-888888-9-999999-4-444444-4-444444--------|
A|--6-666666-7-777777-2-222222-4-444444--------|
E|-----------------------------2-222222--------|(x4)

[Riff A]

e|------------------------------------------------------------------------|
B|------------------------------------------------------------------------|
G|------------8-----------8------------8-----------8----------------4~~~--|
D|------9-----------9------------9-----------9----------11----11----4~~~--|
A|---------------------------7-7---7-7---7-7---7-7---9-9---9-9------2~~~--|
E|--7-7---7-7---7-7---7-7-------------------------------------------------|(x2)

[Verse 3]
part a 

e|----------------------------------------------------|
B|----------------------------------------------------|
G|------8-----8-----8-----8-----8-----8-----9---------|
D|------------------------------------------------9---|
A|--------------------------7-7---7-7---9-9---9-9-----|
E|--7-7---7-7---7-7---7-7-----------------------------|(x2)

[Verse 3]
part b 

e|--------------------------------------------------|
B|--------------------------------------------------|
G|--4--4--4-4--99999999-11-11-11-11-11-11-11-11-----|
D|--4--4--4-4--99999999-11-11-11-11-11-11-11-11-----|
A|--2--2--2-2--77777777--9--9--9--9--9--9--9--9-----|
E|--------------------------------------------------|(x2)

[Chorus]

e|---------------------------------------------|
B|---------------------------------------------|
G|--8-888888-9-999999-4-444444-----------------|
D|--8-888888-9-999999-4-444444-4-444444--------|
A|--6-666666-7-777777-2-222222-4-444444--------|
E|-----------------------------2-222222--------|(x4)

[Intro]

e|-------------------------------------------------------------------|
B|--4-4-444-2-2-222-4-4-444-2-2-222-4-4-444-2-2-222-4-4-444-2~~~~----|
G|--4-4-444-4-4-444-4-4-444-4-4-444-4-4-444-4-4-444-4-4-444-4~~~~----|
D|--4-4-444-4-4-444-4-4-444-4-4-444-2-2-222-2-2-222-2-2-222-2--------|~~~-let ring
A|--0-0-000-0-0-000-0-0-000-0-0-000-0-0-000-0-0-000-0-0-000-0~~~~----|
E|-------------------------------------------------------------------|

[Chorus]

e|---------------------------------------------|
B|---------------------------------------------|
G|--8-888888-9-999999-4-444444-----------------|
D|--8-888888-9-999999-4-444444-4-444444--------|
A|--6-666666-7-777777-2-222222-4-444444--------|
E|-----------------------------2-222222--------|(x4)



5. What's my age again

[Intro/Verse] 

e|-----------------------------------------|
B|-----11------11------11-------11---------|
G|---11--11--11--11--11--11---11--11-------|
D|--9--------------------------------------|
A|----------9------------------------------|
E|------------------9-------11-------------|(x6)

[Chorus]                           on the last one do this

e|---------------------------+----------------------------------------|
B|---------------------------+----------------------------------------|
G|------66-6-88-8-4-4444-----+-------66-66--88888888-66666666-4~~~----|
D|--4-4-66-6-88-8-4-4444-----+---4-4-66-66--88888888-66666666-4~~~----|
A|--4-4-44-4-66-6-2-2222-----+---4-4-44-44--66666666-44444444-2~~~----|
E|--2-2----------------------+---2-2----------------------------------|(x3)

[Intro/Verse] (x1)

e|-----------------------------------------|
B|-----11------11------11-------11---------|
G|---11--11--11--11--11--11---11--11-------|
D|--9--------------------------------------|
A|----------9------------------------------|
E|------------------9-------11-------------|

[Verse 2] (x3)                 on the 4th do this

e|----------------------+-------------------------------|
B|----------------------+-------------------------------|
G|--4444------6666-8888-+-4444------66666666-44444444---|
D|--4444-4444-6666-8888-+-4444-4444-66666666-44444444---|
A|--2222-4444-4444-6666-+-2222-4444-44444444-22222222---|
E|-------2222-----------+------2222---------------------|
pm  .... .... .... ....   .... .... ........ ........

[Chorus]                           on the last one do this

e|---------------------------+----------------------------------------|
B|---------------------------+----------------------------------------|
G|------66-6-88-8-4-4444-----+-------66-66--88888888-66666666-4~~~----|
D|--4-4-66-6-88-8-4-4444-----+---4-4-66-66--88888888-66666666-4~~~----|
A|--4-4-44-4-66-6-2-2222-----+---4-4-44-44--66666666-44444444-2~~~----|
E|--2-2----------------------+---2-2----------------------------------|(x3)

[Interlude]

e|--------------------------------------------------------------|
B|---11---11----11---11-----------------------------------------|
G|-----11---11----11---11---------------------------------------|
D|--9----------9---------------8989----898-----8989---898-------|
A|--------------------------999-----999---9-999----999----------|
E|--------------------------------------------------------------|

[Interlude]
continued - just keep doing these until you get to the [Chorus]

e|-------------------------------------------------------------|
B|-------------------------------------------------------------|
G|--------11-------------11--------------11--------------------|
D|----8---------8-----8----------8-----8-----------------------|
A|--9---9---9-9---9-9---9----9-9---9-9---9---------------------|
E|-------------------------------------------------------------|

[Chorus] (x3)                      on the last one do this

do this whole section 3 times
e|---------------------------+----------------------------------------|
B|---------------------------+----------------------------------------|
G|------66-6-88-8-4-4444-----+-------66-66--88888888-66666666---------|
D|--4-4-66-6-88-8-4-4444-----+---4-4-66-66--88888888-66666666---------|
A|--4-4-44-4-66-6-2-2222-----+---4-4-44-44--66666666-44444444---------|
E|--2-2----------------------+---2-2----------------------------------|

end on

e|-----------------------------------------------|
B|-----------------------------------------------|
G|--4~~~~~~~~~~~---------------------------------|
D|--4~~~~~~~~~~~let ring-------------------------|
A|--2~~~~~~~~~~~---------------------------------|
E|-----------------------------------------------|


6. Dysentary gary

[Intro] (x4)

e|------------------------------------------------------------------------|
B|------------------------------------------------------------------------|
G|-------------------------------------------------------------------7~~--|
D|--4-4-4-0-0-0-5-5-5-4-4-4-0-0-0-0-------4-4-4----------------------7~~--|
A|----------------------------------------------0-0-0-4-4-4-4-4-4-0--5~~--|
E|----------------------------------3-3-3---------------------------------|

play this over the top after 2 of the above

e|---------------------------------------------------|
B|---------------------------------------------------|
G|--77777777-77777777--------------------------------|
D|--77777777-77777777-55555555-77777777------(x2)----|
A|--55555555-55555555-55555555-77777777--------------|
E|--------------------33333333-55555555--------------|

[Verse] (x2)

e|----------------------------------------------------------------|
B|----------------------------------------------------------------|
G|--7-------------7---------------------------2------2------2-----|
D|--7-------4~~~--7-------4~~~--5-------5~~~--2------2------2-----|
A|--5--0000-5~~~--5--0000-5~~~--5--0000-5~~~--0------0------0-----|
E|------------------------------3-------3~~~----3333---3333---3---|
pm     ....          ....          ....         ....   ....

[Interlude](x1)

e|------------------------------------------------------|
B|--3--3--3--3--3--3--3--3--3--3--3--3--2--2--2--2------|
G|--2--2--2--2--2--2--2--2--0--0--0--0--2--2--2--2------|
D|--0--0--0--0--0--0--0--0--0--0--0--0--2--2--2--2------|
A|--------------------------------------0--0--0--0------|
E|------------------------------------------------------|

[Pre-Chorus](x1)

e|--------------------------------------------------------------------------|
B|--------------------------------------------------------------------------|
G|--77777777-77777777-77777777-77777777-------------------------------------|
D|--77777777-77777777-77777777-77777777-55555555-55555555-77777777-77777777-|
A|--55555555-55555555-55555555-55555555-55555555-55555555-77777777-77777777-|
E|--------------------------------------33333333-33333333-55555555-55555555-|

[Chorus] (x6)

e|--15----14-----------------------|
B|--------------15-----------------|
G|--------------------12--12--12---|
D|---------------------------------|
A|---------------------------------|
E|---------------------------------|

[Intro] (x2)

e|------------------------------------------------------------------------|
B|------------------------------------------------------------------------|
G|-------------------------------------------------------------------7~~--|
D|--4-4-4-0-0-0-5-5-5-4-4-4-0-0-0-0-------4-4-4----------------------7~~--|
A|----------------------------------------------0-0-0-4-4-4-4-4-4-0--5~~--|
E|----------------------------------3-3-3---------------------------------|

play this over the top of the above

e|---------------------------------------------------|
B|---------------------------------------------------|
G|--77777777-77777777--------------------------------|
D|--77777777-77777777-55555555-77777777------(x2)----|
A|--55555555-55555555-55555555-77777777--------------|
E|--------------------33333333-55555555--------------|

[Verse] (x2)

e|----------------------------------------------------------------|
B|----------------------------------------------------------------|
G|--7-------------7---------------------------2------2------2-----|
D|--7-------4~~~--7-------4~~~--5-------5~~~--2------2------2-----|
A|--5--0000-5~~~--5--0000-5~~~--5--0000-5~~~--0------0------0-----|
E|------------------------------3-------3~~~----3333---3333---3---|
pm     ....          ....          ....         ....   ....

[Interlude](x2)

e|------------------------------------------------------|
B|--3--3--3--3--3--3--3--3--3--3--3--3--2--2--2--2------|
G|--2--2--2--2--2--2--2--2--0--0--0--0--2--2--2--2------|
D|--0--0--0--0--0--0--0--0--0--0--0--0--2--2--2--2------|
A|--------------------------------------0--0--0--0------|
E|------------------------------------------------------|

pre-[Chorus] (x1)

e|--------------------------------------------------------------------------|
B|--------------------------------------------------------------------------|
G|--77777777-77777777-77777777-77777777-------------------------------------|
D|--77777777-77777777-77777777-77777777-55555555-55555555-77777777-77777777-|
A|--55555555-55555555-55555555-55555555-55555555-55555555-77777777-77777777-|
E|--------------------------------------33333333-33333333-55555555-55555555-|

[Chorus] (x6)

e|--15----14-----------------------|
B|--------------15-----------------|
G|--------------------12--12--12---|
D|---------------------------------|
A|---------------------------------|
E|---------------------------------|

[Bridge]

e|-------------------------------------------------------------|
B|-------------------------------------------------------------|
G|-------------------------------------------------------------|
D|--4--5--4---2--------4--5--4---2---0----4--5--4------5~~~~~--|let ring
A|--5-------------0----5-----------0------5------------5~~~~~--|
E|--------------3--------------------------------------3~~~~~--|

[Chorus]

e|--------------------------------------------------------------------------|
B|--------------------------------------------------------------------------|
G|--------------------------------------77777777-77777777-44444444-44444444-|
D|--55555555-55555555-77777777-77777777-77777777-77777777-44444444-44444444-|
A|--55555555-55555555-77777777-77777777-55555555-55555555-22222222-22222222-|
E|--33333333-33333333-55555555-55555555-------------------------------------|

[Chorus] continued

e|------------------------------------------------|
B|------------------------------------------------|
G|------------------------------------------------|
D|--55555555-55555555-77777777-77777777-----------|
A|--55555555-55555555-77777777-77777777-----------|
E|--33333333-33333333-55555555-55555555-----------|

[Outro]

e|-----------------------------------------|
B|-----------------------------------------|
G|------------------------------------7----|
D|--4-4-4-0-0-0-5-5-5-4-4-4-----------7----|
A|------------------------------------5----|
E|--------------------------3/5-5-5--------|


7. Adams song

[Intro]

e|----------------------------------------------------|
B|----------------------------------------------------|
G|----------------------------------------------------|
D|----4-0---4-0---4-0---4-0---4-0---4-0---4-0---4-0---|
A|--2-----2-----0-----0-------------------------------|
E|--------------------------3-----3-----0-----3-------|(x2)

[Verse]

e|--------------------------------------------------------------------|
B|--------------------------------------------------------------------|
G|--------------------------------------------------------------------|
D|--4-4-4-4-4-4-4-4---------------------------------------------------|
A|--5-5-5-5-5-5-5-5-5-5-5-5-5-5-5-5-9-9-9-9-9-9-9-9-5-5-5-5-5-5-5-5---|
E|------------------3-3-3-3-3-3-3-3-7-7-7-7-7-7-7-7-3-3-3-3-3-3-3-3---|(x4)
pm  . . . . . . . . . . . . . . . . . . . . . . . . . . . . . . . .

[Interlude](x2)

e|------------------------------------------------------|
B|------------------------------------------------------|
G|------0-----0-----0-----0-----------------------------|
D|----7-----7-----9-----9-----4-0---4-0---4-0---4-0-----|
A|--5-----5-----7-----7-----2-----2---------------------|
E|--------------------------------------3-----3---------|

[Chorus] (x2)

e|----------------------------------------|
B|----------------------------------------|
G|--77777777-99999999\44444444------------|
D|--xxxxxxxx-xxxxxxxx\xxxxxxxx-55555555---|
A|--55555555-77777777\22222222-xxxxxxxx---|
E|-----------------------------33333333---|

[Chorus] continued with heavy distortion (x2)

e|----------------------------------------|
B|----------------------------------------|
G|--77777777-99999999\44444444------------|
D|--77777777-99999999\44444444-55555555---|
A|--55555555-77777777\22222222-55555555---|
E|-----------------------------33333333---|

[Intro] (x2)

e|----------------------------------------------------|
B|----------------------------------------------------|
G|----------------------------------------------------|
D|----4-0---4-0---4-0---4-0---4-0---4-0---4-0---4-0---|
A|--2-----2-----0-----0-------------------------------|
E|--------------------------3-----3-----0-----3-------|

[Verse] (x4)

e|--------------------------------------------------------------------|
B|--------------------------------------------------------------------|
G|--------------------------------------------------------------------|
D|--4-4-4-4-4-4-4-4---------------------------------------------------|
A|--5-5-5-5-5-5-5-5-5-5-5-5-5-5-5-5-9-9-9-9-9-9-9-9-5-5-5-5-5-5-5-5---|
E|------------------3-3-3-3-3-3-3-3-7-7-7-7-7-7-7-7-3-3-3-3-3-3-3-3---|
pm  . . . . . . . . . . . . . . . . . . . . . . . . . . . . . . . .

[Interlude](x2)

e|------------------------------------------------------|
B|------------------------------------------------------|
G|------0-----0-----0-----0-----------------------------|
D|----7-----7-----9-----9-----4-0---4-0---4-0---4-0-----|
A|--5-----5-----7-----7-----2-----2---------------------|
E|--------------------------------------3-----3---------|

[Chorus] (x2)

e|----------------------------------------|
B|----------------------------------------|
G|--77777777-99999999\44444444------------|
D|--xxxxxxxx-xxxxxxxx\xxxxxxxx-55555555---|
A|--55555555-77777777\22222222-xxxxxxxx---|
E|-----------------------------33333333---|

[Chorus] continued with heavy distortion (x2)

e|----------------------------------------|
B|----------------------------------------|
G|--77777777-99999999\44444444------------|
D|--77777777-99999999\44444444-55555555---|
A|--55555555-77777777\22222222-55555555---|
E|-----------------------------33333333---|

[Interlude]
- im not sure how many times it does this so if you listen
to the song you can work it out

e|--------------------------------------------------------|
B|--------------------------------------------------------|
G|------0-----0-----------0-----0-----------0-----0-------|
D|----4-----4-----4-----4-----4-----4-----4-----4-----4---|
A|--5-----5-----5-----5-----5-----5-----5-----5-----5-----|
E|--------------------------------------------------------|

e|------------------------------------------------------|
B|------------------------------------------------------|
G|------7-----7-----7-----7-----7-----7-----7-----7-----|
D|----0-----0-----0-----0-----0-----0-----0-----0-------|
A|--5-----5-----5-----5-----5-----5-----5-----5---------|
E|------------------------------------------------------|

[Chorus] with heavy distortion (x4)              end on

e|----------------------------------------     --------------|
B|----------------------------------------     --------------|
G|--77777777-99999999\44444444------------     --------------|
D|--77777777-99999999\44444444-55555555---     -5~~~~~-------|
A|--55555555-77777777\22222222-55555555---     -5~~~~~-------|
E|-----------------------------33333333---     -3~~~~~-------|




8. All the small things

[Intro](x2)

e|------------------------------------------------------|
B|------------------66666666----------------------------|
G|--------55555555--55555555----------------------------|
D|--5-3---55555555--55555555--555555555--------333------|
A|--5-3---33333333--33333333--555555555--0000--333------|
E|--3-1-----------------------333333333--------111------|
pm                                       ....

[Verse] (x4)                                         then end [Verse] on this

e|----------------------------------------------    ------------|
B|----------------------------------------------    ------------|
G|----------------------------------------------    --5-5~~~----|
D|--55555555------------------------------------    --5-5~~~----|
A|--33333333--55555555--33333333--55555555------    --3-3~~~----|
E|------------33333333--11111111--33333333------    ------------|
pm  ........  ........  ........  ........

[Chorus] (x2)

e|-----------------------------------------------|
B|-----------------------------------------------|
G|--55555555-55555555----------------------------|
D|--55555555-55555555--55555555-33333333---------|
A|--33333333-33333333--55555555-33333333---------|
E|---------------------33333333-11111111---------|

[Interlude](x2)

e|---------------------------------------------------|
B|---------------------------------------------------|
G|--55555555-10101010-9999-777777777-----------555---|
D|--xxxxxxxx--x-x-x-x-xxxx-xxxxxxxxx-----------xxx---|
A|--33333333--8-8-8-8-7777-555555555--0-0-0-0--333---|
E|---------------------------------------------------|

[Verse] (x2)                                         then end [Verse] on this

e|----------------------------------------------    ------------|
B|----------------------------------------------    ------------|
G|----------------------------------------------    --5-5~~~----|
D|--55555555------------------------------------    --5-5~~~----|
A|--33333333--55555555--33333333--55555555------    --3-3~~~----|
E|------------33333333--11111111--33333333------    ------------|
pm  ........  ........  ........  ........

[Chorus]
e|-----------------------------------------------|
B|-----------------------------------------------|
G|--55555555-55555555----------------------------|
D|--55555555-55555555--55555555-33333333---------|
A|--33333333-33333333--55555555-33333333---------|
E|---------------------33333333-11111111---------|(x2)


[Interlude]

e|------------------------------------------|
B|------------------------------------------|
G|--5---5---5---5---4---4---7---7-----------|
D|----5---5---5---5---5---5---5---5---------|
A|------------------------------------------|
E|------------------------------------------|(x4)
pm  . . . . . . . . . . . . . . . .

[Chorus]

[Chorus]

e|---------------------------------------------------------|
B|---------------------------------------------------------|
G|--55555555-55555555--------------------------------------|
D|--55555555-55555555--55555555-33333333-------------------|
A|--33333333-33333333--55555555-33333333-------------------|
E|---------------------33333333-11111111-------------------|(x4)


9. The party song

[Intro] (x3)                                 on the last one do this

e|---------------------------------------|-------------------------------|
B|---------------------------------------|-------------------------------|
G|---------------------------------------|-------------------------------|
D|---------------------------------------|-------------------------------|
A|-----------77-777-7-44-444-4-77-777-7--|-----------77-777-7-44-444-4---|
E|--77-777-7-----------------------------|--77-777-7---------------------|
pm  .. ... . .. ... . .. ... . .. ... .     .. ... . .. ... . .. ... .

e|--------------------------|
B|--------------------------|
G|--------------------------|
D|--------------------------|
A|--77-7-99-9---------------|
E|------------77-777-77-7---|
pm  .. . .. . .. ... .. .

[Verse]                                     on the last do this

e|---------------------------------------|-------------------------------|
B|---------------------------------------|-------------------------------|
G|-----------99-999-9-66-666-6-99-999-9--|-----------99-999-9-66-666-6---|
D|--99-999-9-99-999-9-66-666-6-99-999-9--|--99-999-9-99-999-9-66-666-6---|
A|--99-999-9-77-777-7-44-444-4-77-777-7--|--99-999-9-77-777-7-44-444-4---|
E|--77-777-7-----------------------------|--77-777-7---------------------|(x4)

e|----------------------------------|
B|----------------------------------|
G|----------------------------------|
D|--99-9-1111-11--------------------|
A|--77-7--9-9--9-99-999-99-9--------|
E|---------------77-777-77-7--------|

[Pre-Chorus]

e|------------------------------------------------|
B|------------------------------------------------|
G|------------------------------------------------|
D|--4-----2-1--------2-1--------2-1---------------|
A|-------------2----------2----------2----2--4----|
E|------------------------------------------------|

e|-------------------------------------------------------------|
B|-------------------------------------------------------------|
G|-------------------------------------------------------------|
D|-------------------------------------------------------------|
A|--22222222-44444-22222222-44444-22222222-44444-22222222-4----|
E|-------------------------------------------------------------|
pm  ........ ..... ........ ..... ........ ..... ........

[Chorus] (x8)

e|----------------|
B|----------------|
G|----44----------|
D|-------2-1------|
A|--2--------4----|
E|----------------|

[Verse]                                     on the last do this

e|---------------------------------------|-------------------------------|
B|---------------------------------------|-------------------------------|
G|-----------99-999-9-66-666-6-99-999-9--|-----------99-999-9-66-666-6---|
D|--99-999-9-99-999-9-66-666-6-99-999-9--|--99-999-9-99-999-9-66-666-6---|
A|--99-999-9-77-777-7-44-444-4-77-777-7--|--99-999-9-77-777-7-44-444-4---|
E|--77-777-7-----------------------------|--77-777-7---------------------|(x4)

e|-------------------------------|
B|-------------------------------|
G|-------------------------------|
D|--99-9-1111-11-----------------|
A|--77-7--9-9--9-99-999-99-9-----|
E|---------------77-777-77-7-----|

[Pre-Chorus]

e|------------------------------------------------|
B|------------------------------------------------|
G|------------------------------------------------|
D|--4-----2-1--------2-1--------2-1---------------|
A|-------------2----------2----------2----2--4----|
E|------------------------------------------------|

e|-------------------------------------------------------------|
B|-------------------------------------------------------------|
G|-------------------------------------------------------------|
D|-------------------------------------------------------------|
A|--22222222-44444-22222222-44444-22222222-44444-22222222-4----|
E|-------------------------------------------------------------|
pm  ........ ..... ........ ..... ........ ..... ........

[Chorus]

e|----------------|
B|----------------|
G|----44----------|
D|-------2-1------|
A|--2--------4----|
E|----------------|(x12)


10. Mutt

intro im not sure how many times it does this just listen to the cd

e|--------------------------------------------------------------------------|
B|-----2------2------2------2------2------2------2------2------2------2-----|
G|--2------2------2------2------2------2------2------2------2------2--------|
D|-------2------2------2------2------2------2------2------2------2-------2--|
A|--------------------------------------------------------------------------|
E|--------------------------------------------------------------------------|

[Verse]

e|------------------------------------------------------------|
B|------------------------------------------------------------|
G|------2-----2-----2h4-----2h4-----6-----6-----2h4-----2h4---|
D|------------------------------------------2-2-----2-2-------|
A|--0-0---0-0---0-0-----0-0-----0-4---4-4---------------------|
E|------------------------------------------------------------|(x2)
pm  . .   . .   . .     . .     . .   . .   . .     . .

 (x2)

e|------------------------------------------------|
B|------------------------------------------------|
G|--2-2222222-222222222---------------------------|
D|--2-2222222-222222222-4-4444444-2-2222222-------|
A|--0-0000000-0-0000000-4-4444444-2-2222222-------|
E|----------------------2-2222222-0-0000000-------|

[Interlude]

e|------------------------------------------------|
B|------------------------------------------------|
G|------------------------------------------------|
D|--7-77777777-7-77777777-7-77777777-7-77-7-77----|
A|--x-xxxxxxxx-x-xxxxxxxx-x-xxxxxxxx-5-55-4-44----|
E|--5-55555555-5-55555555-7-77777777--------------|(x6)

[Intro]
(again i dont know how many times to do it)

e|--------------------------------------------------------------------------|
B|-----2------2------2------2------2------2------2------2------2------2-----|
G|--2------2------2------2------2------2------2------2------2------2--------|
D|-------2------2------2------2------2------2------2------2------2-------2--|
A|--------------------------------------------------------------------------|
E|--------------------------------------------------------------------------|

[Verse] (x2)

e|------------------------------------------------------------|
B|------------------------------------------------------------|
G|------2-----2-----2h4-----2h4-----6-----6-----2h4-----2h4---|
D|------------------------------------------2-2-----2-2-------|
A|--0-0---0-0---0-0-----0-0-----0-4---4-4---------------------|
E|------------------------------------------------------------|
pm  . .   . .   . .     . .     . .   . .   . .     . .

 (x2)

e|------------------------------------------------|
B|------------------------------------------------|
G|--2-2222222-222222222---------------------------|
D|--2-2222222-222222222-4-4444444-2-2222222-------|
A|--0-0000000-0-0000000-4-4444444-2-2222222-------|
E|----------------------2-2222222-0-0000000-------|

[Interlude]

e|------------------------------------------------|
B|------------------------------------------------|
G|------------------------------------------------|
D|--7-77777777-7-77777777-7-77777777-7-77-7-77----|
A|--x-xxxxxxxx-x-xxxxxxxx-x-xxxxxxxx-5-55-4-44----|
E|--5-55555555-5-55555555-7-77777777--------------|(x6)

cont

e|--------------------------------------|
B|--------------------------------------|
G|--------------------------------------|
D|------------------------7-7--6-6------|
A|--7-7--------9-9--------5-5--4-4------|
E|--5-5--------7-7----------------------|
pm  . .        . .        . .  . .

[Intro]

e|--------------------------------------------------------------|
B|-----2------2------2------2------2------2------2------2-------|
G|--2------2------2------2------2------2------2------2----------|
D|-------2------2------2------2------2------2------2------2-----|
A|--------------------------------------------------------------|
E|--------------------------------------------------------------|

[Interlude]

e|------------------------------------------------|
B|------------------------------------------------|
G|------------------------------------------------|
D|--7-77777777-7-77777777-7-77777777-7-77-7-77----|
A|--x-xxxxxxxx-x-xxxxxxxx-x-xxxxxxxx-5-55-4-44----|
E|--5-55555555-5-55555555-7-77777777--------------|(x4)

[Outro]

e|---------------------------------------------|
B|---------------------------------------------|
G|--2-2-----------4-4------------------2-------|
D|--2-2-----------4-4-----7-7--7-7-----2-------|
A|--0-0-----------2-2-----5-5--4-4-----0-------|
E|---------------------------------------------|(x2)


11. Wendy clear

[Intro] (x8) do 6 over the top of this -----------------
                                                       |
e|-------------------------------                     ---|
B|-------------------------------                     ---|
G|----0-------------0------------                     ---|
D|--------0-3-2---------0-3-2----------------------------|                    \ | /
A|--3---3---------3---3----------                     ---|
E|-------------------------------------------------------|

e|--------------------------------------------------------------------------|
B|--------------------------------------------------------------------------|
G|--55555555-55555555-55555555-55555555-------------------------------------|
D|--55555555-55555555-55555555-55555555-33333333-33333333-33333333-33333333-|
A|--33333333-33333333-33333333-33333333-33333333-33333333-33333333-33333333-|
E|--------------------------------------11111111-11111111-11111111-11111111-|

e|-----------------------------------------|
B|-----------------------------------------|
G|-----------------------------------------|
D|--55555555-55555555-33333333-33333333----|
A|--55555555-55555555-33333333-33333333----|
E|--33333333-33333333-11111111-11111111----|

[Verse]

e|------------------------------------------------------------|
B|------------------------------------------------------------|
G|--55555555-55555555-55555555-55555555-----------------------|
D|--55555555-55555555-55555555-55555555-5-5-33333333-33333333-|
A|--33333333-33333333-33333333-33333333-5-5-33333333-33333333-|
E|--------------------------------------3-3-11111111-11111111-|(x2)

cont

e|------------------------|
B|------------------------|
G|--22222222--------------|
D|--22222222-33333333-----|
A|--00000000-33333333-----|
E|-----------11111111-----|

[Chorus]

e|----------------------------------------|
B|----------------------------------------|
G|-55555555-55555555----------------------|
D|-55555555-55555555-55555555-33333333----|
A|-33333333-33333333-55555555-33333333----|
E|-------------------33333333-11111111----|(x2)

[Chorus] cont

e|-----------------------------------------------------------------------|
B|-----------------------------------------------------------------------|
G|--55555555-55555555-2-2----------55555555----------22222222------------|
D|--55555555-55555555-2-2---3--3-3-55555555-55555555-22222222-33333333---|
A|--33333333-33333333-0-0---3--3-3-33333333-55555555-00000000-33333333---|
E|------------------------0-1--1-1----------33333333----------11111111---|

[Intro] (x6) over the top of this -------------
                                              |
e|-------------------------------            ---|
B|-------------------------------            ---|
G|----0-------------0------------            ---|
D|--------0-3-2---------0-3-2-------------------|           \ | /
A|--3---3---------3---3----------            ---|
E|----------------------------------------------|

e|--------------------------------------------------------------------------|
B|--------------------------------------------------------------------------|
G|--55555555-55555555-55555555-55555555-------------------------------------|
D|--55555555-55555555-55555555-55555555-33333333-33333333-33333333-33333333-|
A|--33333333-33333333-33333333-33333333-33333333-33333333-33333333-33333333-|
E|--------------------------------------11111111-11111111-11111111-11111111-|

e|-----------------------------------------|
B|-----------------------------------------|
G|-----------------------------------------|
D|--55555555-55555555-33333333-33333333----|
A|--55555555-55555555-33333333-33333333----|
E|--33333333-33333333-11111111-11111111----|

[Verse 2] bass only

[Chorus]

e|----------------------------------------|
B|----------------------------------------|
G|-55555555-55555555----------------------|
D|-55555555-55555555-55555555-33333333----|
A|-33333333-33333333-55555555-33333333----|
E|-------------------33333333-11111111----|(x2)

[Chorus] cont

e|-----------------------------------------------------------------------|
B|-----------------------------------------------------------------------|
G|--55555555-55555555-2-2----------55555555----------22222222------------|
D|--55555555-55555555-2-2---3--3-3-55555555-55555555-22222222-33333333---|
A|--33333333-33333333-0-0---3--3-3-33333333-55555555-00000000-33333333---|
E|------------------------0-1--1-1----------33333333----------11111111---|

[Bridge]

e|------------------------------------------------------|
B|------------------------------------------------------|
G|--55555555-55555555-----------------------------------|
D|--55555555-55555555-2-2-----------5-5-----------------|
A|--33333333-33333333-0-0----3-3----3-3----5-5----7-7---|
E|---------------------------1-1-----------3-3----5-5---|

e|------------------------------------------------------------------|
B|------------------------------------------------------------------|
G|-----------55555555-55555555----2-2-----------5-5-----------------|
D|--33333333-55555555-55555555----0-0----3-3----3-3----5-5----7-7---|
A|--33333333-33333333-33333333-----------1-1-----------3-3----5-5---|
E|--11111111--------------------------------------------------------|

e|--------------|
B|--------------|
G|--------------|
D|--33333333----|
A|--33333333----|
E|--11111111----|

[Intro] (x6) over the top of this -------------
                                              |
e|-------------------------------            ---|
B|-------------------------------            ---|
G|----0-------------0------------            ---|
D|--------0-3-2---------0-3-2-------------------|           \ | /
A|--3---3---------3---3----------            ---|
E|----------------------------------------------|

e|--------------------------------------------------------------------------|
B|--------------------------------------------------------------------------|
G|--55555555-55555555-55555555-55555555-------------------------------------|
D|--55555555-55555555-55555555-55555555-33333333-33333333-33333333-33333333-|
A|--33333333-33333333-33333333-33333333-33333333-33333333-33333333-33333333-|
E|--------------------------------------11111111-11111111-11111111-11111111-|

e|-----------------------------------------|
B|-----------------------------------------|
G|-----------------------------------------|
D|--55555555-55555555-33333333-33333333----|
A|--55555555-55555555-33333333-33333333----|
E|--33333333-33333333-11111111-11111111----|

[Chorus]

e|--------------------------------------|
B|--------------------------------------|
G|--------------------55555555-55555555-|
D|--55555555-33333333-55555555-55555555-|
A|--55555555-33333333-33333333-33333333-|
E|--33333333-11111111-------------------|

cont

e|---------------------------------------------------------|
B|---------------------------------------------------------|
G|---2-2----------55555555----------22222222---------------|
D|---2-2---3--3-3-55555555-55555555-22222222-33333333------|
A|---0-0---3--3-3-33333333-55555555-00000000-33333333------|
E|-------0-1--1-1----------33333333----------11111111------|

[Outro]

e|----------------------------------------|
B|----------------------------------------|
G|-55555555-55555555----------------------|
D|-55555555-55555555-55555555-33333333----|
A|-33333333-33333333-55555555-33333333----|
E|-------------------33333333-11111111----|(x4)


             
12. Anthem Part 1

[Intro/Verse]

e|----------------------------------------------------|
B|----------------------------------------------------|
G|--44444-44444-88888-88888-99999-66666-99999-66666---|
D|--xxxxx-xxxxx-xxxxx-xxxxx-xxxxx-xxxxx-xxxxx-xxxxx---|
A|--22222-22222-66666-66666-77777-44444-77777-44444---|
E|----------------------------------------------------|

e|----------------------------------------------------|
B|----------------------------------------------------|
G|--44444-44444-44444-44444-44444-------44444---------|
D|--xxxxx-xxxxx-xxxxx-xxxxx-xxxxx-44444-xxxxx-44444---|
A|--22222-22222-22222-22222-22222-xxxxx-22222-xxxxx---|
E|--------------------------------22222-------22222---|

e|----------------------------------------------------|
B|----------------------------------------------------|
G|--44444-44444-88888-88888-99999-66666-99999-66666---|
D|--xxxxx-xxxxx-xxxxx-xxxxx-xxxxx-xxxxx-xxxxx-xxxxx---|
A|--22222-22222-66666-66666-77777-44444-77777-44444---|
E|----------------------------------------------------|

[Chorus]

e|-----------------------------------------|
B|-----------------------------------------|
G|-----------------------------------------|
D|--66666666-44444444-22222222-44444444----|
A|--66666666-44444444-22222222-44444444----|
E|--44444444-22222222-00000000-22222222----|(x4)

[Interlude]

e|-------------------------|
B|-------------------------|
G|--44444-44444-44444------|
D|--44444-44444-44444--2---|
A|--22222-22222-22222--2---|
E|---------------------0---|

[Verse]

e|--------------------------------------------------------------------------|
B|--------------------------------------------------------------------------|
G|--44-444-4-44-444-4-88-888-8-88-888-8-99-999-9-66-666-6-99-999-9-66-666-6-|
D|--xx-xxx-x-xx-xxx-x-xx-xxx-x-xx-xxx-x-xx-xxx-x-xx-xxx-x-xx-xxx-x-xx-xxx-x-|
A|--22-222-2-22-222-2-66-666-6-66-666-6-77-777-7-44-444-4-77-777-7-44-444-4-|
E|--------------------------------------------------------------------------|

e|--------------------------------------------------------------------------|
B|--------------------------------------------------------------------------|
G|--44-444-4-44-444-4-44-444-4-44-444-4-44-444-4----------44-444-4----------|
D|--xx-xxx-x-xx-xxx-x-xx-xxx-x-xx-xxx-x-xx-xxx-x-44-444-4-xx-xxx-x-44-444-4-|
A|--22-222-2-22-222-2-22-222-2-22-222-2-22-222-2-xx-xxx-x-22-222-2-xx-xxx-x-|
E|-----------------------------------------------22-222-2----------22-222-2-|

[Chorus]

e|-----------------------------------------|
B|-----------------------------------------|
G|-----------------------------------------|
D|--66666666-44444444-22222222-44444444----|
A|--66666666-44444444-22222222-44444444----|
E|--44444444-22222222-00000000-22222222----|(x4)

[Bridge]

e|--------------------------------------------------------------------------|
B|--------------------------------------------------------------------------|
G|--4-444-44-4-444-44-------------------4-444-44-4-444-44-------------------|
D|--4-444-44-4-444-44-2-222-22-2-222-22-4-444-44-4-444-44-4-444-44-4-444-44-|
A|--2-222-22-2-222-22-2-222-22-2-222-22-2-222-22-2-222-22-4-444-44-4-444-44-|
E|--------------------0-000-00-0-000-00-------------------2-222-22-2-222-22-|

e|------------------------------------------------------------|
B|------------------------------------------------------------|
G|------4-444-44-4-444-44-------------------4-444-44-4-444-44-|
D|------4-444-44-4-444-44-2-222-22-2-222-22-4-444-44-4-444-44-|
A|------2-222-22-2-222-22-2-222-22-2-222-22-2-222-22-2-222-22-|
E|--222-------------------0-000-00-0-000-00-------------------|

e|-----------------------|
B|-----------------------|
G|-----------------------|
D|--4-444-44-4-444-44----|
A|--4-444-44-4-444-44----|
E|--2-222-22-2-222-22----|

e|--------------------------------------------------------------------------|
B|--------------------------------------------------------------------------|
G|--4-444-44-4-444-44-------------------------------------------------------|
D|--4-444-44-4-444-44-2-222-22-2-222-22-66-666-6-66-666-6-4-444-44-4-444-44-|
A|--2-222-22-2-222-22-2-222-22-2-222-22-66-666-6-66-666-6-4-444-44-4-444-44-|
E|--------------------0-000-00-0-000-00-44-444-4-44-444-4-2-222-22-2-222-22-|

[Interlude](x2)

e|----------------------------------------------------------|
B|----------------------------------------------------------|
G|----------------------------------------------------------|
D|--1-------4------1-------------1-------------1------------|
A|------2--------------2-----------------4-------------2----|
E|-------------------------0---------2-------------0--------|

e|-----------------------------------------------------|
B|-----------------------------------------------------|
G|-----------------------------------------------------|
D|------1-----1-----4-----4-----1-----1-----4-----4----|
A|--2-2---2-2---2-2---2-2---2-2---2-2---2-2---2-2------|
E|-----------------------------------------------------|

e|-----------------------------------------------------|
B|-----------------------------------------------------|
G|-----------------------------------------------------|
D|-----------------------------------------------------|
A|------2-----2-----4-----4-----2-----2-----4-----4----|
E|--0-0---0-0---2-2---2-2---0-0---0-0---2-2---2-2------|

e|-----------------------------------------------------|
B|-----------------------------------------------------|
G|-----------------------------------------------------|
D|------1-----1-----4-----4-----1-----1-----4-----4----|
A|--2-2---2-2---2-2---2-2---2-2---2-2---2-2---2-2------|
E|-----------------------------------------------------|

e|-----------------------------------------------------|
B|-----------------------------------------------------|
G|-----------------------------------------------------|
D|-----------------------------------------------------|
A|------2-----2-----4-----4-----2-----2-----4-----4----|
E|--0-0---0-0---2-2---2-2---0-0---0-0---2-2---2-2------|

[Chorus]

e|-----------------------------------------|
B|-----------------------------------------|
G|-----------------------------------------|
D|--66666666-44444444-22222222-44444444----|
A|--66666666-44444444-22222222-44444444----|
E|--44444444-22222222-00000000-22222222----|(x4)

[Bridge]

e|--------------------------------------------------------------------------|
B|--------------------------------------------------------------------------|
G|--4-444-44-4-444-44-------------------4-444-44-4-444-44-------------------|
D|--4-444-44-4-444-44-2-222-22-2-222-22-4-444-44-4-444-44-4-444-44-4-444-44-|
A|--2-222-22-2-222-22-2-222-22-2-222-22-2-222-22-2-222-22-4-444-44-4-444-44-|
E|--------------------0-000-00-0-000-00-------------------2-222-22-2-222-22-|

e|------------------------------------------------------------|
B|------------------------------------------------------------|
G|------4-444-44-4-444-44-------------------4-444-44-4-444-44-|
D|------4-444-44-4-444-44-2-222-22-2-222-22-4-444-44-4-444-44-|
A|------2-222-22-2-222-22-2-222-22-2-222-22-2-222-22-2-222-22-|
E|--222-------------------0-000-00-0-000-00-------------------|

e|-----------------------|
B|-----------------------|
G|-----------------------|
D|--4-444-44-4-444-44----|
A|--4-444-44-4-444-44----|
E|--2-222-22-2-222-22----|

e|--------------------------------------------------------------------------|
B|--------------------------------------------------------------------------|
G|--4-444-44-4-444-44-------------------------------------------------------|
D|--4-444-44-4-444-44-2-222-22-2-222-22-66-666-6-66-666-6-4-444-44-4-444-44-|
A|--2-222-22-2-222-22-2-222-22-2-222-22-66-666-6-66-666-6-4-444-44-4-444-44-|
E|--------------------0-000-00-0-000-00-44-444-4-44-444-4-2-222-22-2-222-22-|

[Outro]

e|------------------------------------------------------------|
B|------------------------------------------------------------|
G|-------------------------------------------------4~~~~~-----|
D|--1-----4----1----------------1------1-2---------4~~~~~-----|let ring
A|----2----------2----------------------------4----2~~~~~-----|
E|-------------------0---2-4----------------------------------|



************************************

| ~  Vibrato
| /  Slide up
| .  Staccato
| x  Dead note
| \  Slide down
| h  Hammer-on

************************************

https://tabs.ultimate-guitar.com/b/blink-182/enema_of_the_state_album_ver4_tab.htm