Tablature guitare : Blink-182 – Dysentery Gary

[Intro 1]
e|------------------------------------------------------|
B|------------------------------------------------------|
G|--------------------------------------------------7>--|
D|–4-4-4-0-0-0-5-5-5-4-4-4-------4-4-4-0-0-0--------7>--|
A|-------------------------0-0-0-------------4-4-4—-5>--|
E|------------------------------------------------------|

[Intro 2]
which is played as backing to the above:
e|-------------------|
B|-------------------|
G|-777777------------|
D|–777777-5555-7777--|
A|-555555-5555-7777--|
E|--------3333-5555--|

[Verse]
e|--------------------------------------------|
B|--------------------------------------------|
G|-7-xxxx-7--7-xxxx-7-------------------------|
D|–7-xxxx-7--7-xxxx-7--5-xxxx-5--7-xx-7-x-77--|
A|-5-xxxx-5--5-xxxx-5--5-xxxx-5--7-xx-7-x-77--|
E|---------------------3-xxxx-3--5-xx-5-x-55--|

[Riff4]
This is played in between verses and pre-Chorus’ 
e|---------------------------------|
B|---------------------------------|
G|-7-7-7-7-7-7-7-7-7-7-7-7-6-6-6-6-|
D|–--------------------------------|
A|---------------------------------|
E|---------------------------------|

[Pre-Chorus]
“he’s a player, diarrhea giver...” 
e|-------------------------|
B|-------------------------|
G|-7777777777--------------|
D|–7777777777-55555-77777--|
A|-5555555555-55555-77777--|
E|------------33333-55555--|

[Chorus]
e|-15-14-------------15-14-------------|
B|-------15----------------15----------|
G|----------12-12-12----------12-12-12-|
D|-------------------------------------|
A|-------------------------------------|
E|-------------------------------------|

[Intro 2]
which is played as backing to the above:
e|-------------------|
B|-------------------|
G|-777777------------|
D|–777777-5555-7777--|
A|-555555-5555-7777--|
E|--------3333-5555--|

[Verse]
e|--------------------------------------------|
B|--------------------------------------------|
G|-7-xxxx-7--7-xxxx-7-------------------------|
D|–7-xxxx-7--7-xxxx-7--5-xxxx-5--7-xx-7-x-77--|
A|-5-xxxx-5--5-xxxx-5--5-xxxx-5--7-xx-7-x-77--|
E|---------------------3-xxxx-3--5-xx-5-x-55--|

[Riff4]
This is played in between verses and pre-Chorus’ 
e|---------------------------------|
B|---------------------------------|
G|-7-7-7-7-7-7-7-7-7-7-7-7-6-6-6-6-|
D|–--------------------------------|
A|---------------------------------|
E|---------------------------------|

[Pre-Chorus]
“he’s a player, diarrhea giver...” 
e|-------------------------|
B|-------------------------|
G|-7777777777--------------|
D|–7777777777-55555-77777--|
A|-5555555555-55555-77777--|
E|------------33333-55555--|

[Chorus]
e|-15-14-------------15-14-------------|
B|-------15----------------15----------|
G|----------12-12-12----------12-12-12-|
D|-------------------------------------|
A|-------------------------------------|
E|-------------------------------------|

[Interlude]
e|--------------------------------------------------------|
B|--------------------------------------------------------|
G|----------------------------------------------------7>--|
D|–--5-4-----0------5-4-----0------5-4-----0------5-4-7>--|
A|-5-----4--------5-----4--------5-----4--------5-----5>--|
E|---------5--------------5--------------5----------------|

[Chorus]
e|-15-14-------------15-14-------------|
B|-------15----------------15----------|
G|----------12-12-12----------12-12-12-|
D|-------------------------------------|
A|-------------------------------------|
E|-------------------------------------|


************************************

| x  Palm Mute
| >   Let Ring

************************************

https://tabs.ultimate-guitar.com/b/blink-182/dysentery_gary_ver5_tab.htm