Tablature guitare : Blink-182 – Dumpweed

-------------------------------------------------------------------------------
                             Dumpweed – Blink 182
------------------------------------------------------------------------------- 

[Intro]

(Part 1)
e|-------------------------------------------------------------------------------|
B|-------------------------------------------------------------------------------|
G|-------------------------------------------------------------------------------|
D|-6-6-h7p-6------------6-6-h7p-6----------6-6-h7p-6------------6-6-h7p-6--9-----|
A|-------------0-9-0-7--------------0-9-0--------------0-9-0-0-----------------9-|
E|-----------7--------------------7------------------7-----------------------7---|


[Intro]

(Part 2)
e|--4h0p--0-4h0p--0—-2h0p--0-2h0p---0--4h0p---0-4h0p---0--5h0p---0--5h0p---------|
B|------0--------0---------0-------0---------0--------0---------0--------0-------|
G|-------------------------------------------------------------------------------|
D|-------------------------------------------------------------------------------|
A|-------------------------------------------------------------------------------|
E|-------------------------------------------------------------------------------|


[Verse]

(palm muted)
e|-------------------------------------------------------------------------------|
B|-------------------------------------------------------------------------------|
G|-------------------------------------------------------------------------------|
D|-------------------4-4-4-4-4-4-4-4--------------------4-4-4-4-4-4-4-4----------|
A|--2-2-2-2-2-2-2-2--2-2-2-2-2-2-2-2--2-2-2-2-2-2-2-2---2-2-2-2-2-2-2-2----------|
E|--0-0-0-0-0-0-0-0-------------------0-0-0-0-0-0-0-0----------------------------|

e|-------------------------------------------------------------------------------|
B|-------------------------------------------------------------------------------|
G|-------------------------------------------------------------------------------|
D|-2-2-2-2-2-2-2-2--4-4-4-4-4-4-4-4---2-2-2-2-2-2-2-2---4-4-4-4-4-4-4-4----------|
A|-0-0-0-0-0-0-0-0--2-2-2-2-2-2-2-2---0-0-0-0-0-0-0-0---2-2-2-2-2-2-2-2----------|
E|-------------------------------------------------------------------------------|


[Chorus]

e|-------------------------------------------------------------------------------|
B|-------------------------------------------------------------------------------|
G|-------------------4-4-4-4-4-4-4-4--2-2-2-2-2-2-2-2---4-4-4-4-4-4-4-4----------|
D|--2-2-2-2-2-2-2-2--4-4-4-4-4-4-4-4--2-2-2-2-2-2-2-2---4-4-4-4-4-4-4-4----------|
A|--2-2-2-2-2-2-2-2--2-2-2-2-2-2-2-2--0-0-0-0-0-0-0-0---2-2-2-2-2-2-2-2----------|
E|--0-0-0-0-0-0-0-0--------------------------------------------------------------|

e|-------------------------------------------------------------------------------|
B|-------------------------------------------------------------------------------|
G|-------------------4-4-4-4-4-4-4-4--2-2-2-2-2-2-2-2---4-----4------------------|
D|--2-2-2-2-2-2-2-2--4-4-4-4-4-4-4-4--2-2-2-2-2-2-2-2---4-----4------------------|
A|--2-2-2-2-2-2-2-2--2-2-2-2-2-2-2-2--0-0-0-0-0-0-0-0---2-----2------------------|
E|--0-0-0-0-0-0-0-0--------------------------------------------------------------|


[Outro]

(Part 1- palm muted)
e|-------------------------------------------------------------------------------|
B|-------------------------------------------------------------------------------|
G|-------------------------------------------------------------------------------|
D|-------------------4-4-4-4-4-4-4-4--------------------4-4-4-4-4-4-4-4----------|
A|--2-2-2-2-2-2-2-2--2-2-2-2-2-2-2-2--2-2-2-2-2-2-2-2---2-2-2-2-2-2-2-2----------|
E|--0-0-0-0-0-0-0-0-------------------0-0-0-0-0-0-0-0----------------------------|

e|-------------------------------------------------------------------------------|
B|-------------------------------------------------------------------------------|
G|-------------------------------------------------------------------------------|
D|-2-2-2-2-2-2-2-2--4-4-4-4-4-4-4-4---2-2-2-2-2-2-2-2---4-4-4-4-4-4-4-4----------|
A|-0-0-0-0-0-0-0-0--2-2-2-2-2-2-2-2---0-0-0-0-0-0-0-0---2-2-2-2-2-2-2-2----------|
E|-------------------------------------------------------------------------------|


[Outro]

(Part 2 – palm muted)
e|---4-0----0------2-0-----0—---4-0-----0—---5-0-----0--------------------|
B|-------0-----0--------0------------0------------0-----------------------|
G|------------------------------------------------------------------------|
D|------------------------------------------------------------------------|
A|------------------------------------------------------------------------|
E|------------------------------------------------------------------------|

e|---4-0----0------2-0-----0—---4-0-----0—---5-0-----0--2-----------------|
B|-------0-----0--------0------------0------------0-----------------------|
G|------------------------------------------------------------------------|
D|------------------------------------------------------------------------|
A|------------------------------------------------------------------------|
E|------------------------------------------------------------------------|

e|---4-0----0------2-0-----0—---4-0-----0—---5-0-----0--------------------|
B|-------0-----0--------0------------0------------0-----------------------|
G|------------------------------------------------------------------------|
D|------------------------------------------------------------------------|
A|------------------------------------------------------------------------|
E|------------------------------------------------------------------------|

e|---4-0----0------2-0-----0—---4-0-----0—---2-0-----0--------------------|
B|-------0-----0--------0------------0------------0-----------------------|
G|------------------------------------------------------------------------|
D|------------------------------------------------------------------------|
A|------------------------------------------------------------------------|
E|------------------------------------------------------------------------|



************************************

| h  Hammer-on
| p  Pull-off 

************************************

https://tabs.ultimate-guitar.com/b/blink-182/dumpweed_ver11_tab.htm