Tablature guitare : Blink-182 – Boxing Day

Tuning: Standard

Alright this is my second tab ever.  This is based of the radio version, so the 
quality wasn't perfect.  However, this tab sounds pretty close.  This is the blink I love.

Im splitting them the riffs into parts, so you play them to lyrics below.  Most of 
the song consists of 
chords so I'm just going to write them out.  The strumming isn't that difficult to pick up.
NC means No Chord. Intro was hard to tab, but it is correct.


[Intro riff]

e|------------------------------------|
B|---3---------3---1---------1p0------|    Play 3 times on 4
G|-------0---0---------0---0-------0--|    time end on beat 3
D|------------------------------------|    then 4 beats of rest
A|---------2-------0-----0-------0----|
E|------------------------------------|
     1 e + a 2 e + a 3 e + a 4 e + a


[Verse riff]

e|---3---------------3-------3--------|-----3---------------3---3-3-3-3---3---|
B|---3--normal-------3-------3--------|-----3--normal-------0h1-1-1-1-0---x---|
G|---0--strum--------0-------x--------|-----0--strum--------0---0-0-0-0---2---|
D|---0--pattern------0-------2--------|-----2--pattern------x---x-x-x-x---x---|
A|---x---------------x-------0--------|-----2---------------3---3-3-3-3---3---|
E|---3---------------2-------x--------|-----0---------------x---x-x-x-x---x---|
     1 e + a 2 e + a 3 e + a 4 e + a        1 e + a 2 e + a 3 e + a 4 e + a


[Pre-Chorus Chords]

       G     Dadd11   Em7    Cadd9
e|-----3-------3-------3-------3-------|
B|-----3-------3-------3-------3-------|
G|-----0-------2-------0-------0-------|
D|-----0-------0-------2-------x-------|
A|-----x-------x-------2-------3-------|
E|-----3-------2-------0-------x-------|


[Chorus Chords]

       G     Cadd9    Em7    Cadd9
e|-----3-------3-------3-------3-------|
B|-----3-------3-------3-------3-------|
G|-----0-------0-------0-------0-------|
D|-----0-------x-------2-------x-------|
A|-----x-------3-------2-------3-------|
E|-----3-------x-------0-------x-------|



[Intro riff]


[Verse riff]

Let's get started, the faint and broken-hearted, 
Hold it up, I've got something I cannot hide.
Worst painkiller, that all-in filler,
The apart and departed look in my eyes.


[Pre-Chorus Chords]

 G               Dadd11                Em7
Sad, how far you ran, I'll search this land,
                Cadd9
Up through the clouds then back here.
G          Dadd11         Em7                  NC
We could reignite like fireflies, like an atom bomb,
NC
At all hours.


[Chorus Chords]

                   G           Cadd9
I'm empty like the day after christmas,
                  Em7           Cadd9
Swept beneath the wave of your goodbye.
                   G           Cadd9
You left me on the day after christmas,
                        Em7            Cadd9
There's nothing left to say, and so goodnight.


[Verse 2]

I will follow the trail to tomorrow,
With my loneliness with sorrow all through the night.
Sons and daughters, mothers and their fathers.
Just the bridges and the waters their clues left behind.


[Pre-Chorus Chords]

Sad, how far you ran, I'll search this land,
Up through the clouds then back here.
We could reignite like fireflies, like an atom bomb,
At all hours.


[Chorus Chords]

I'm empty like the day after christmas,
Swept beneath the wave of your goodbye.
You left me on the day after christmas,
There's nothing left to say, and so goodnight.


[The Bridge]

Same as verse riff


[Chorus Chords]]

I'm empty like the day after christmas,
Swept beneath the wave of your goodbye.
You left me on the day after christmas,
There's nothing left to say, and so goodnight.

Let G  ring
Goodnight.



************************************

| x  Dead note
| h  Hammer-on
| p  Pull-off

************************************

I'm pretty sure on the verse riff the hammer on part is like this

e|-3---3-3-3-3---3--|
B|-0h1-1-1-1-0---x--|
G|-0---0-0-0-0---0--|
D|-x---x-x-x-x---x--|
A|-3---3-3-3-3---3--|
E|-x---x-x-x-x---x--| 

after the second chorus, there is a little riff played over the bridge
it is

e|------------------------------------|
B|-12---12-13-10---10-12-8---15-15-13-|   
G|------------------------------------|    
D|------------------------------------| 
A|------------------------------------|
E|------------------------------------|

https://tabs.ultimate-guitar.com/b/blink-182/boxing_day_tab_1200264id_11122012date.htm