Tablature guitare : Blink-182 – Anthem

Blink 182
Anthem

[Intro/verse]
e|-------------------------------------------------|
B|------------------------4-4-4-4-4--4-4-4-4-4-----|
G|--4-4-4-4-4--4-4-4-4-4--4-4-4-4-4--4-4-4-4-4-----|
D|--4-4-4-4-4--4-4-4-4-4--x-x-x-x-x--x-x-x-x-x-----|
A|--2-2-2-2-2--2-2-2-2-2--2-2-2-2-2--2-2-2-2-2-----|
E|-------------------------------------------------|

e|-------------------------------------------------|
B|-------------------------------------------------|
G|--9-9-9-9-9--6-6-6-6-6--9-9-9-9-9--6-6-6-6-6-----|
D|--9-9-9-9-9--x-x-x-x-x--9-9-9-9-9--x-x-x-x-x-----|
A|--7-7-7-7-7--4-4-4-4-4--7-7-7-7-7--4-4-4-4-4-----|
E|-------------------------------------------------| X3

[Chorus]
e|---------------------------------------------------------------------|
B|---------------------------------------------------------------------|
G|---------------------------------------------------------------------|
D|--6-6-6-6-6-6-6-6--4-4-4-4-4-4-4-4--2-2-2-2-2-2-2-2--4-4-4-4-4-4-4-4-|
A|--6-6-6-6-6-6-6-6--4-4-4-4-4-4-4-4--2-2-2-2-2-2-2-2--4-4-4-4-4-4-4-4-|
E|--4-4-4-4-4-4-4-4--2-2-2-2-2-2-2-2--0-0-0-0-0-0-0-0--2-2-2-2-2-2-2-2-| X4

[Interlude]
e|---------------------------------------------------|
B|---------------------------------------------------|
G|-4-4-4-4-4--4-4-4-4-4--4-4-4-4-4-------------------|
D|-4-4-4-4-4--4-4-4-4-4--4-4-4-4-4--2----------------|
A|-2-2-2-2-2--2-2-2-2-2--2-2-2-2-2--2--(let ring)----|
E|----------------------------------0----------------|

[Verse]
e|-------------------------------------------------|
B|-------------------------------------------------|
G|--4-4-4-4-4-4-4-4-4-4-4-4-4-4-4-4----------------|
D|--4-4-4-4-4-4-4-4-4-4-4-4-4-4-4-4----------------|
A|--2-2-2-2-2-2-2-2-2-2-2-2-2-2-2-2----------------|
E|-------------------------------------------------|

e|-------------------------------------------------|
B|-------------------------------------------------|
G|--9-9-9-9-9--6-6-6-6-6--9-9-9-9-9--6-6-6-6-6-----|
D|--9-9-9-9-9--x-x-x-x-x--9-9-9-9-9--x-x-x-x-x-----|
A|--7-7-7-7-7--4-4-4-4-4--7-7-7-7-7--4-4-4-4-4-----|
E|-------------------------------------------------| X2

[Chorus]
e|------------------------------------------------------------------------|
B|------------------------------------------------------------------------|
G|------------------------------------------------------------------------|
D|--6-6-6-6-6-6-6-6--4-4-4-4-4-4-4-4--2-2-2-2-2-2-2-2--4-4-4-4-4-4-4-4----|
A|--6-6-6-6-6-6-6-6--4-4-4-4-4-4-4-4--2-2-2-2-2-2-2-2--4-4-4-4-4-4-4-4----|
E|--4-4-4-4-4-4-4-4--2-2-2-2-2-2-2-2--0-0-0-0-0-0-0-0--2-2-2-2-2-2-2-2---| X4

[Bridge]
e|-----------------------------------------------------------|
B|-----------------------------------------------------------|
G|-4--4-4-4--4-4-4--4-4-4--4-4-------------------------------|
D|-4--4-4-4--4-4-4--4-4-4--4-4--2--2-2-2--2-2--2--2-2-2-2-2--|
A|-2--2-2-2--2-2-2--2-2-2--2-2--2--2-2-2--2-2--2--2-2-2-2-2--|
E|------------------------------0--0-0-0--0-0--0--0-0-0-0-0--|

e|-----------------------------------------------------------|
B|-----------------------------------------------------------|
G|-4--4-4-4--4-4-4--4-4-4--4-4-------------------------------|
D|-4--4-4-4--4-4-4--4-4-4--4-4--4--4-4-4--4-4--4--4-4-4-4-4--|
A|-2--2-2-2--2-2-2--2-2-2--2-2--4--4-4-4--4-4--4--4-4-4-4-4--|
E|------------------------------2--2-2-2--2-2--2--2-2-2-2-2--|

e|-----------------------------------------------------------|
B|-----------------------------------------------------------|
G|--------4--4-4-4--4-4-4--4-4-------------------------------|
D|--------4--4-4-4--4-4-4--4-4--2--2-2-2--2-2--2--2-2-2-2-2--|
A|--------2--2-2-2--2-2-2--2-2--2--2-2-2--2-2--2--2-2-2-2-2--|
E|-2-2-2------------------------0--0-0-0--0-0--0--0-0-0-0-0--|
  -----
   P.M.

e|----------------------------------------------------------|
B|----------------------------------------------------------|
G|-4--4-4-4--4-4-4--4-4-4--4-4------------------------------|
D|-4--4-4-4--4-4-4--4-4-4--4-4--4--4-4-4--4-4--4--4-4-4--4--|
A|-2--2-2-2--2-2-2--2-2-2--2-2--4--4-4-4--4-4--4--4-4-4--4--|
E|------------------------------2--2-2-2--2-2--2--2-2-2--2--|

e|----------------------------------------------------------|
B|----------------------------------------------------------|
G|-4--4-4-4--4-4-4--4-4-4--4-4------------------------------|
D|-4--4-4-4--4-4-4--4-4-4--4-4--2--2-2-2--2-2--2--2-2-2--2--|
A|-2--2-2-2--2-2-2--2-2-2--2-2--2--2-2-2--2-2--2--2-2-2--2--|
E|------------------------------0--0-0-0--0-0--0--0-0-0--0--|

e|----------------------------------------------------------|
B|----------------------------------------------------------|
G|----------------------------------------------------------|
D|-6--6-6-6--6-6-6--6-6-6--6-6--4--4-4-4--4-4--4--4-4-4--4--|
A|-6--6-6-6--6-6-6--6-6-6--6-6--4--4-4-4--4-4--4--4-4-4--4--|
E|-4--4-4-4--4-4-4--4-4-4--4-6--2--2-2-2--2-2--2--2-2-2--2--|

[Interlude]
e|----------------------------------------------------------|
B|----------------------------------------------------------|
G|----------------------------------------------------------|
D|-1-----------4-------------------------1------------------|
A|-------2-------------------------------------2------------|
E|---------------------------------------------------0------|

e|----------------------------------------------------------|
B|----------------------------------------------------------|
G|----------------------------------------------------------|
D|-1-------------------------------------1------------------|
A|-------------4--------------------------------------2-----|
E|-------2-------------------------------------0------------| X2

 Interlude Part 2-this is done on bass but it sounds good on guitar too
e|----------------------------------------------------------|
B|----------------------------------------------------------|
G|----------------------------------------------------------|
D|-----1------1------4------4------1------1------4------4---|
A|-2-2----2-2----2-2----2-2----2-2----2-2----2-2----2-2-----|
E|----------------------------------------------------------|

e|----------------------------------------------------------|
B|----------------------------------------------------------|
G|----------------------------------------------------------|
D|----------------------------------------------------------|
A|-----2------2------4------4------4------4------4------4---|
E|-0-0----0-0----2-2----2-2----0-0----0-0----2-2----2-2-----|

[Chorus]
e|---------------------------------------------------------------------|
B|---------------------------------------------------------------------|
G|---------------------------------------------------------------------|
D|--6-6-6-6-6-6-6-6--4-4-4-4-4-4-4-4--2-2-2-2-2-2-2-2--4-4-4-4-4-4-4-4-|
A|--6-6-6-6-6-6-6-6--4-4-4-4-4-4-4-4--2-2-2-2-2-2-2-2--4-4-4-4-4-4-4-4-|
E|--4-4-4-4-4-4-4-4--2-2-2-2-2-2-2-2--0-0-0-0-0-0-0-0--2-2-2-2-2-2-2-2-| X4

[Bridge]
e|-----------------------------------------------------------|
B|-----------------------------------------------------------|
G|-4--4-4-4--4-4-4--4-4-4--4-4-------------------------------|
D|-4--4-4-4--4-4-4--4-4-4--4-4--2--2-2-2--2-2--2--2-2-2-2-2--|
A|-2--2-2-2--2-2-2--2-2-2--2-2--2--2-2-2--2-2--2--2-2-2-2-2--|
E|------------------------------0--0-0-0--0-0--0--0-0-0-0-0--|

e|-----------------------------------------------------------|
B|-----------------------------------------------------------|
G|-4--4-4-4--4-4-4--4-4-4--4-4-------------------------------|
D|-4--4-4-4--4-4-4--4-4-4--4-4--4--4-4-4--4-4--4--4-4-4-4-4--|
A|-2--2-2-2--2-2-2--2-2-2--2-2--4--4-4-4--4-4--4--4-4-4-4-4--|
E|------------------------------2--2-2-2--2-2--2--2-2-2-2-2--|

e|-----------------------------------------------------------|
B|-----------------------------------------------------------|
G|--------4--4-4-4--4-4-4--4-4-------------------------------|
D|--------4--4-4-4--4-4-4--4-4--2--2-2-2--2-2--2--2-2-2-2-2--|
A|--------2--2-2-2--2-2-2--2-2--2--2-2-2--2-2--2--2-2-2-2-2--|
E|-2-2-2------------------------0--0-0-0--0-0--0--0-0-0-0-0--|
  -----
   P.M.

e|----------------------------------------------------------|
B|----------------------------------------------------------|
G|-4--4-4-4--4-4-4--4-4-4--4-4------------------------------|
D|-4--4-4-4--4-4-4--4-4-4--4-4--4--4-4-4--4-4--4--4-4-4--4--|
A|-2--2-2-2--2-2-2--2-2-2--2-2--4--4-4-4--4-4--4--4-4-4--4--|
E|------------------------------2--2-2-2--2-2--2--2-2-2--2--|

e|----------------------------------------------------------|
B|----------------------------------------------------------|
G|-4--4-4-4--4-4-4--4-4-4--4-4------------------------------|
D|-4--4-4-4--4-4-4--4-4-4--4-4--2--2-2-2--2-2--2--2-2-2--2--|
A|-2--2-2-2--2-2-2--2-2-2--2-2--2--2-2-2--2-2--2--2-2-2--2--|
E|------------------------------0--0-0-0--0-0--0--0-0-0--0--|

e|----------------------------------------------------------|
B|----------------------------------------------------------|
G|----------------------------------------------------------|
D|-6--6-6-6--6-6-6--6-6-6--6-6--4--4-4-4--4-4--4--4-4-4--4--|
A|-6--6-6-6--6-6-6--6-6-6--6-6--4--4-4-4--4-4--4--4-4-4--4--|
E|-4--4-4-4--4-4-4--4-4-4--4-6--2--2-2-2--2-2--2--2-2-2--2--|

e|----------------------------------------------------------|
B|----------------------------------------------------------|
G|----------------------------------------------------------|
D|--1----------4----------1---------------------------------|
A|--------2---------------------2---------------------------|
E|------------------------------------0---------------------|

e|----------------------------------------------------------|
B|----------------------------------------------------------|
G|----------------------------------------------4-----------|
D|--------------------1---1/2-------------------4-----------|
A|---------1--------------------4---------------2-----------|
E|-2---4-------------------------------2-2-2----------------|
                                      -----
END                                    P.M.



************************************

| x  Dead note
| /  Slide up
|    (let ring) 
|P.M Palm Mute
************************************

https://tabs.ultimate-guitar.com/b/blink-182/anthem_ver7_tab.htm