Tablature guitare : Blink-182 – Anthem Part Two

Blink 182,Anthem Part 2.
 Tabbed by Brian Houssock,Blinknfgtx182@aol.com.

This is a simple song,and i think its one of blink\'s best songs!!
there are 2 other versions of this song on this site,this version is the
REAL way to play it!!

[intro] (clean)

e|-3---3---1---1---0---0---1---1-----------------------|
B|---1---1---1---1---1---1---1---1---------------------|
G|-----------------------------------------------------|
D|-----------------------------------------------------|
A|-----------------------------------------------------|
E|-----------------------------------------------------|

Then This(distortion)

e|------------------------------------------------------|
B|------------------------------------------------------|
G|------------------------------------------------------|
D|----0h3--2---0h3---2---0h3---2----0----0--------------|
A|--33---33--33----33--33----33--33---33----------------|
E|------------------------------------------------------|

e|-----------------------------------------------------|
B|-----------------------------------------------------|
G|-9---10---9---5---7--------9--10--5------------------|
D|-----------------------------------------------------|
A|-7----8---7---3---5--------7---8--3------------------|
E|-----------------------------------------------------|

e|-------------------------------------------------------------------|
B|-------------------------------------------------------------------|
G|-------------------------------------------------------------------|
D|-5--let ring-------------------------------------------------------|
A|-3-----------3-3-3-3-3-3-3-3-3--0-0-0-0-0-0-0-0--------------------|
E|-------------------------------------------------1-1-1-1-1-1-1-1---|
P.m.           . . . . . . . . .  . . . . . . . .  . . . . . . . .


Bass [Interlude] for guitar

e|-----------------------------------------------------|
B|-----------------------------------------------------|
G|-----------------------------------------------------|
D|-----------------------------------------------------|
A|---7---------5--------3------------------------------|
E|-5---5-----3---3----1--------------------------------|


[Chorus]

e|-----------------------------------------------------|
B|-----------------------------------------------------|
G|-----------------------------------------------------|
D|-------5-----------5------2-----5-----2--------------|
A|-3--3--3--5--3--3--3--5---0--3--3--5--0--3-----------|
E|-0--1-----3--0--1-----3------1-----3-----1-----------|
                          P.m. .  .  .  .  .

And thats it!!!its easy!! you guys can figure out the strumming yourselves,
im too lazy!



************************************

| h   Hammer-on
| let ring 
| P.m Palm Mute

************************************

https://tabs.ultimate-guitar.com/b/blink-182/anthem_part_two_ver2_tab.htm