Tablature guitare : Blink-182 – Dammit

[Intro]

play with alot of distortion (and possibly chorus).
e|-------------------------------------------------------|
B|-------------------------------------------------------|
G|-------------------------------------------------------|
D|-----0-0-2-------0-0-2-------0-0-2-------2-2-0---------|
A|-3-3---------------------0-0---------------------------|
E|-------------3-3---------------------1-1---------------|(x4)


[Verse 1] 

"It's all right to tell me what you think about me"...

e|-------------------------------------------------------|
B|-------------------------------------------------------|
G|--5-5-5-5-5-5------------------------------------------|
D|--5-5-5-5-5-5--5-5-5-5-5-5--7-7-7-7-7-7--3-3-3-3-3-----|
A|--3-3-3-3-3-3--5-5-5-5-5-5--7-7-7-7-7-7--3-3-3-3-3-----|
E|---------------3-3-3-3-3-3--5-5-5-5-5-5--1-1-1-1-1-----|(x2)

*palm mute all strums but the first of each chord.


[Verse 2] 

same thing as first verse but hit each chord 5 times w/o palmmute

e|-----------------|
B|-----------------|
G|--5--------------|
D|--5---5---7--3---|
A|--3---5---7--3---|
E|------3---5--1---|(x2)


[Instrumental] 

play with alot of distortion (and possibly chorus).
e|-------------------------------------------------------|
B|-------------------------------------------------------|
G|-------------------------------------------------------|
D|-----0-0-2-------0-0-2-------0-0-2-------2-2-0---------|
A|-3-3---------------------0-0---------------------------|
E|-------------3-3---------------------1-1---------------|(x4)


[Verse 1] 

"It's all right to tell me what you think about me"...

e|-------------------------------------------------------|
B|-------------------------------------------------------|
G|--5-5-5-5-5-5------------------------------------------|
D|--5-5-5-5-5-5--5-5-5-5-5-5--7-7-7-7-7-7--3-3-3-3-3-----|
A|--3-3-3-3-3-3--5-5-5-5-5-5--7-7-7-7-7-7--3-3-3-3-3-----|
E|---------------3-3-3-3-3-3--5-5-5-5-5-5--1-1-1-1-1-----|(x2)

*palm mute all strums but the first of each chord.


[Verse 2] 

same thing as first verse but hit each chord 5 times w/o palmmute

e|-----------------|
B|-----------------|
G|--5--------------|
D|--5---5---7--3---|
A|--3---5---7--3---|
E|------3---5--1---|(x2)


[Chorus] 

chorus-"And its happened once again..."
same chords but different rhythm

e|-----------------|
B|-----------------|
G|--5--------------|
D|--5---5---7--3---|
A|--3---5---7--3---|
E|------3---5--1---|(x2)


[Instrumental]

play with alot of distortion (and possibly chorus).
e|-------------------------------------------------------|
B|-------------------------------------------------------|
G|-------------------------------------------------------|
D|-----0-0-2-------0-0-2-------0-0-2-------2-2-0---------|
A|-3-3---------------------0-0---------------------------|
E|-------------3-3---------------------1-1---------------|(x2)


[Verse 1] 

"It's all right to tell me what you think about me"...

e|-------------------------------------------------------|
B|-------------------------------------------------------|
G|--5-5-5-5-5-5------------------------------------------|
D|--5-5-5-5-5-5--5-5-5-5-5-5--7-7-7-7-7-7--3-3-3-3-3-----|
A|--3-3-3-3-3-3--5-5-5-5-5-5--7-7-7-7-7-7--3-3-3-3-3-----|
E|---------------3-3-3-3-3-3--5-5-5-5-5-5--1-1-1-1-1-----|(x2)

*palm mute all strums but the first of each chord.


[Verse 2] 

same thing as first verse but hit each chord 5 times w/o palmmute

e|-----------------|
B|-----------------|
G|--5--------------|
D|--5---5---7--3---|
A|--3---5---7--3---|
E|------3---5--1---|(x2)


[Chorus] 

chorus-"And its happened once again..."
same chords but different rhythm

e|-----------------|
B|-----------------|
G|--5--------------|
D|--5---5---7--3---|
A|--3---5---7--3---|
E|------3---5--1---|(x2)


[Bridge] 

(Clean) 
e|------------------------------------------------------------|
B|------------------------------------------------------------|
G|------------------------------------------------------------|
D|--2------0--2------2---------0-2---0-2----2-----------------|
A|----3---------3------3-----------3-----3----3---------------|
E|------3----------------3----------------------3-------------|(x2)


[Outro] 

play with alot of distortion (and possibly chorus).
e|-------------------------------------------------------|
B|-------------------------------------------------------|
G|-------------------------------------------------------|
D|-----0-0-2-------0-0-2-------0-0-2-------2-2-0---------|
A|-3-3---------------------0-0---------------------------|
E|-------------3-3---------------------1-1---------------|(x2)


[Order of the song]

intro           4x
verse           2x      (it's alright to tell me, what you think about me...")
verse2          2x      (i know that your leaving, you must have your reasons")
instrumental    2x
verse           2x      (the steps that i retraced, the sad look on your face)
verse2          2x      ( a day late a buck short, im writing the report...)
chorus          2x      (and its happened once again, i'll turn to a friend...)
instrumental    2x
verse           2x      (and maybe i'll see you, at a movie sneak preview...)
verse2          2x      (and you'll smile, and i'll wave...)
chorus          2x      (and its happened once again, i'll turn to a friend...)
bridge
instrumental    4x      end on C5

Source : https://tabs.ultimate-guitar.com/b/blink-182/dammit_ver2_tab.htm