Tablature guitare : Blink-182 – Bored To Death

Blink-182 Bored To Death Tab

-------------------------------------------------------------------------------
                         BORED TO DEATH - Blink 182
-------------------------------------------------------------------------------
Tabbed by: Brian Wells
Tuning: Standard


[Verse 1]

e|-----------------------------------------------------------------|
B|-----------------------------------------------------------------|
G|-----------------------------------------------------------------|
D|----2--------2--------2--------2-------2-------0---------------0-| X5
A|0-0------0-0------3-3------3-3--------------------------3--------|
E|-----------------------------------1-1-----1-1-----1-1-----1-1---|


[Pre-Chorus 1]

Guitar 1
e|---------------------------------------------------------------|
B|---------------------------------------------------------------|
G|---------------------------------------------------------------|
D|----2-------2-------2-------2-------5-------3-------2-------2--|
A|0-0-----0-0-----0-0-----0-0-----3-3-----3-3-----3-3-----3-3----|
E|---------------------------------------------------------------|

Guitar 2 (Palm Muted)
e|---------------------------------------------------------------|
B|---------------------------------------------------------------|
G|2-2-2-2-2-2-2-2-2-2-2-2-2-2-2-2-5-5-5-5-5-5-5-5-5-5-5-5-5-5-5-5|
D|2-2-2-2-2-2-2-2-2-2-2-2-2-2-2-2-5-5-5-5-5-5-5-5-5-5-5-5-5-5-5-5|
A|0-0-0-0-0-0-0-0-0-0-0-0-0-0-0-0-3-3-3-3-3-3-3-3-3-3-3-3-3-3-3-3|
E|---------------------------------------------------------------|


[Chorus 1]

e|-----------------------------------------------------------------|
B|-----------------------------------------------------------------|
G|-5-5-5-5-5-5-5-5---5-5-5-5-5-5-5---------------------------------|
D|-5-5-5-5-5-5-5-5---5-5-5-5-5-5-5-5-5-5-5-5-5-5-5---5-5-5-5-5-5-5-|
A|-3-3-3-3-3-3-3-3---3-3-3-3-3-3-3-5-5-5-5-5-5-5-5---5-5-5-5-5-5-5-|
E|---------------------------------3-3-3-3-3-3-3-3---3-3-3-3-3-3-3-|

e|-----------------------------------------------------------------|
B|-----------------------------------------------------------------|
G|-----------------------------------------------------------------|
D|-7-7-7-7-7-7-7-7---7-7-7-7-7-7-7-3-3-3-3-3-3-3-3---3-3-3-3-3-3-3-|
A|-7-7-7-7-7-7-7-7---7-7-7-7-7-7-7-3-3-3-3-3-3-3-3---3-3-3-3-3-3-3-|
E|-5-5-5-5-5-5-5-5---5-5-5-5-5-5-5-1-1-1-1-1-1-1-1---1-1-1-1-1-1-1-|

e|-----------------------------------------------------------------|
B|-----------------------------------------------------------------|
G|-5-5-5-5-5-5-5-5---5-5-5-5-5-5-5---------------------------------|
D|-5-5-5-5-5-5-5-5---5-5-5-5-5-5-5-5-5-5-5-5-5-5-5---5-5-5-5-5-5-5-|
A|-3-3-3-3-3-3-3-3---3-3-3-3-3-3-3-5-5-5-5-5-5-5-5---5-5-5-5-5-5-5-|
E|---------------------------------3-3-3-3-3-3-3-3---3-3-3-3-3-3-3-|

e|-----------------------------------|
B|-----------------------------------|
G|-----------------------------------|
D|-7-7-7-7-7-7-7-7---7-7-7-7-7-7-7-3-|
A|-7-7-7-7-7-7-7-7---7-7-7-7-7-7-7-3-|
E|-5-5-5-5-5-5-5-5---5-5-5-5-5-5-5-1-|


[Verse 2]

Guitar 1
e|-----------------------------------------------------------------|
B|-----------------------------------------------------------------|
G|-----------------------------------------------------------------|
D|----2--------2--------2--------2-------2-------0---------------0-| 
A|0-0------0-0------3-3------3-3--------------------------3--------|
E|-----------------------------------1-1-----1-1-----1-1-----1-1---|

Guitar 2 (Palm Muted)                                                 X4
e|-----------------------------------------------------------------|
B|-----------------------------------------------------------------|
G|2-2-2-2-2-2-2-2-2-2-2-2-2-2-2-2-5-5-5-5-5-5-5-5------------------|
D|2-2-2-2-2-2-2-2-2-2-2-2-2-2-2-2-5-5-5-5-5-5-5-5-3-3-3-3-3-3-3-3-3|
A|0-0-0-0-0-0-0-0-0-0-0-0-0-0-0-0-3-3-3-3-3-3-3-3-3-3-3-3-3-3-3-3-3|
E|------------------------------------------------1-1-1-1-1-1-1-1-1|


[Pre-Chorus 2]

Guitar 1
e|-----------------------------------------------------------------|
B|-----------------------------------------------------------------|
G|-----------------------------------------------------------------|
D|----2-------2-------2-------2-------5-------3-------2-------2----|
A|0-0-----0-0-----0-0-----0-0-----3-3-----3-3-----3-3-----3-3------|
E|-----------------------------------------------------------------|

Guitar 2 (Strum & hold each note)
e|-----------------------------------------------------------------|
B|-----------------------------------------------------------------|
G|2-------------------------------5--------------------------------|
D|2-------------------------------5-------------------------------3|
A|0-------------------------------3-------------------------------3|
E|----------------------------------------------------------------1|


[Chorus 2]

e|-----------------------------------------------------------------|
B|-----------------------------------------------------------------|
G|-5-5-5-5-5-5-5-5---5-5-5-5-5-5-5---------------------------------|
D|-5-5-5-5-5-5-5-5---5-5-5-5-5-5-5-5-5-5-5-5-5-5-5---5-5-5-5-5-5-5-|
A|-3-3-3-3-3-3-3-3---3-3-3-3-3-3-3-5-5-5-5-5-5-5-5---5-5-5-5-5-5-5-|
E|---------------------------------3-3-3-3-3-3-3-3---3-3-3-3-3-3-3-|

e|-----------------------------------------------------------------|
B|-----------------------------------------------------------------|
G|-----------------------------------------------------------------|
D|-7-7-7-7-7-7-7-7---7-7-7-7-7-7-7-3-3-3-3-3-3-3-3---3-3-3-3-3-3-3-|
A|-7-7-7-7-7-7-7-7---7-7-7-7-7-7-7-3-3-3-3-3-3-3-3---3-3-3-3-3-3-3-|
E|-5-5-5-5-5-5-5-5---5-5-5-5-5-5-5-1-1-1-1-1-1-1-1---1-1-1-1-1-1-1-|

e|-----------------------------------------------------------------|
B|-----------------------------------------------------------------|
G|-5-5-5-5-5-5-5-5---5-5-5-5-5-5-5---------------------------------|
D|-5-5-5-5-5-5-5-5---5-5-5-5-5-5-5-5-5-5-5-5-5-5-5---5-5-5-5-5-5-5-|
A|-3-3-3-3-3-3-3-3---3-3-3-3-3-3-3-5-5-5-5-5-5-5-5---5-5-5-5-5-5-5-|
E|---------------------------------3-3-3-3-3-3-3-3---3-3-3-3-3-3-3-|

e|-----------------------------------|
B|-----------------------------------|
G|-----------------------------------|
D|-7-7-7-7-7-7-7-7---7-7-7-7-7-7-7-3-|
A|-7-7-7-7-7-7-7-7---7-7-7-7-7-7-7-3-|
E|-5-5-5-5-5-5-5-5---5-5-5-5-5-5-5-1-|


[Bridge]

e|-----------------------------------------------------|
B|-----------------------------------------------------|
G|5-5-5-5-5-5--5-5-5-5-5-5-----------------------------|
D|5-5-5-5-5-5--5-5-5-5-5-5--3-3-3-3-3-3-5-5-5-5-5-5-5-5| X7
A|3-3-3-3-3-2--3-3-3-3-3-2--3-3-3-3-3-3-5-5-5-5-5-5-5-5|
E|--------------------------1-1-1-1-1-0-3-3-3-3-3-3-3-3|


[Chorus 3]

e|-----------------------------------------------------------------|
B|-----------------------------------------------------------------|
G|-5-5-5-5-5-5-5-5---5-5-5-5-5-5-5---------------------------------|
D|-5-5-5-5-5-5-5-5---5-5-5-5-5-5-5-5-5-5-5-5-5-5-5---5-5-5-5-5-5-5-|
A|-3-3-3-3-3-3-3-3---3-3-3-3-3-3-3-5-5-5-5-5-5-5-5---5-5-5-5-5-5-5-|
E|---------------------------------3-3-3-3-3-3-3-3---3-3-3-3-3-3-3-|

e|-----------------------------------------------------------------|
B|-----------------------------------------------------------------|
G|-----------------------------------------------------------------|
D|-7-7-7-7-7-7-7-7---7-7-7-7-7-7-7-3-3-3-3-3-3-3-3---3-3-3-3-3-3-3-|
A|-7-7-7-7-7-7-7-7---7-7-7-7-7-7-7-3-3-3-3-3-3-3-3---3-3-3-3-3-3-3-|
E|-5-5-5-5-5-5-5-5---5-5-5-5-5-5-5-1-1-1-1-1-1-1-1---1-1-1-1-1-1-1-|

e|-----------------------------------------------------------------|
B|-----------------------------------------------------------------|
G|-5-5-5-5-5-5-5-5---5-5-5-5-5-5-5---------------------------------|
D|-5-5-5-5-5-5-5-5---5-5-5-5-5-5-5-5-5-5-5-5-5-5-5---5-5-5-5-5-5-5-|
A|-3-3-3-3-3-3-3-3---3-3-3-3-3-3-3-5-5-5-5-5-5-5-5---5-5-5-5-5-5-5-|
E|---------------------------------3-3-3-3-3-3-3-3---3-3-3-3-3-3-3-|

e|-----------------------------------|
B|-----------------------------------|
G|-----------------------------------|
D|-7-7-7-7-7-7-7-7---7-7-7-7-7-7-7-3-|
A|-7-7-7-7-7-7-7-7---7-7-7-7-7-7-7-3-|
E|-5-5-5-5-5-5-5-5---5-5-5-5-5-5-5-1-|


[Outro]

(Palm Muted)
e|---------------------------------------------------------------|
B|---------------------------------------------------------------|
G|5-5-5-5-5-5-5-5-5-5-5-5-5-5-5-5--------------------------------|
D|5-5-5-5-5-5-5-5-5-5-5-5-5-5-5-5-3-3-3-3-3-3-3-3-5-5-5-5-5-5-5-5| X4
A|3-3-3-3-3-3-3-3-3-3-3-3-3-3-3-3-3-3-3-3-3-3-3-3-5-5-5-5-5-5-5-5|
E|--------------------------------1-1-1-1-1-1-1-1-3-3-3-3-3-3-3-3|

e|--|
B|--|
G|5-|
D|5-|  Hold last note
A|3-|
E|--|
Suggest correction

https://tabs.ultimate-guitar.com/b/blink-182/bored_to_death_ver2_tab_1839882id_28042016date.htm