Tablature guitare : Blink-182 – Adams Song

D-Tuning

[Intro]

Clean
d--------------------------------|
A--------------------------------|
F--------------------------------|
C---4-0-----4-0-----4-0-----4-0--|
G-2-------2-------0-------0------|
D--------------------------------|

--------------------------------|
--------------------------------|
--------------------------------|
---4-0-----4-0-----4-0-----4-0--|
--------------------------------|
-3-------3-------0-------3------|


[Verse]

distortion/palm mute
d--------------------------------------|
A--------------------------------------|
F--------------------------------------|
C-77777777----------44444444-----------|
G-55555555-55555555-22222222-55555555--|
D----------33333333----------33333333--|


[Bridge]

clean
d------------------------------------------------|
A------------------------------------------------|
F-----0------0--------0-------0------------------|
C---7------7--------9-------9-------4-0-----4-0--|
G-5-------5------/7-------7-------2-------2------|
D------------------------------------------------|

----------------|
----------------|
----------------|
---4-0-----4-0--|
----------------|
-3-------3------|


[Pre-Choru]

clean
d-----------------------------------------------|
A-----------------------------------------------|
F-----------------------------------------------|
C-77777777-99999999-44444444----------66666666--|
G-55555555-77777777-22222222-55555555-44444444--|
D----------------------------33333333-----------|

-----------------------------|
-----------------------------|
-77777777-66666666-77777777--|
-55555555-44444444-55555555--|
-----------------------------|
-----------------------------|


[Chorus]

distortion/palm mute
d--------------------------------------|
A--------------------------------------|
F-77777777-99999999-44444444-----------|
C-77777777-99999999-44444444-55555555--|
G-55555555-77777777-22222222-55555555--|
D----------------------------33333333--|


[Inerlude]

 pt.1-clean
d-----------------------|
A-----------------------|
F-----0--0---0---0---0--|
C---7-------------------|
G-5-----5---5---5---5---|
D-----------------------|

then

pt.2
d--------|
A--------|
F-----7--|
C---7----|
G-5------|
D--------|


Song order:

Intro x2
Verse x4
Bridge x2
Pre-Chorus x1
Chorus x2
Intro x2
Verse x4
Bridge x2
Pre-Chorus x1
Chorus x2
Interlude pt.1 x1
Interlude pt.2 repeat until,
Chorus x2

Source : https://tabs.ultimate-guitar.com/b/blink-182/adams_song_ver13_tab.htm