Tablature guitare : Arctic Monkeys – Mad Sounds

A song That's Gonna Be On The New Arctic Monkeys Album "AM"

enjoy this great song!!

**let me know how this tab was for you , by rating it 🙂 ***

[Intro] (Lead Gutiar)

e|-----------5-~---6----------------3---3--5---|
B|--------------------6----6-------------------|  
G|----3-s-5------5-------5--------3-----3--5---| x2
D|---------------------------------------------|
A|---------------------------------------------|
E|---------------------------------------------|

Then :
             Mad Sounds      In Your Ears
e|-----------5-~------------3~-----------------|
B|---------------------------------------------|
G|----3-s-5-----------5-s-3--------------------|
D|---------------------------------------------| x2
A|---------------------------------------------|
E|---------------------------------------------|

Then:

.....          They'll Bring.........Live........
e|----3--5--6---10---8--6---5----------------------------------|
B|-----------------------------5---6---6------------8----------|
G|----3--5--6---10---8--6---6----6--------7-----7-----7--------|
D|-------------------------------------7-----7------8----8-----|
A|-------------------------------------------------------------|
E|-------------------------------------------------------------|

...Mad Sounds.... .In Your Ears
e|------------1---------------------------|
B|----------1------3----------------------|
G|-------2------------3-------------------| x3
D|----3------------------3----------------|
A|--------------------------1~~-----------|
E|----------------------------------------|

4 time :

     Make You Get Up
e|------------1--------------------------|
B|----------1----------------------------|
G|-------2----------3--------------------|
D|----3----------------------------------|
A|---------------------------------------|
E|---------------------------------------|

e|----1-~------------------------------------------|
B|----1-~------3-----------------------------------|
G|----2-~------3-----------------------------------| x2
D|----3-~------3-----------------------------------|
A|----3-~------1-----------------------------------|
E|----1-~------------------------------------------|

Reapet Until The [Bridge]:

.....suppose..Gotta do...Tried.Figure Out..
e|----1-~-----------------3----0----------------------|
B|----1-~------3----------3----1----------------------|
G|----2-~------3---x2-----3----0----x2----------------|
D|----3-~------3----------5----2----------------------|
A|----3-~------1----------5----3----------------------|
E|----1-~-----------------3---------------------------|

And The O-La-LaLa  Part Is The Same As

e|----1-~------------------------------------------|
B|----1-~------3-----------------------------------|
G|----2-~------3-----------------------------------| x2
D|----3-~------3-----------------------------------|
A|----3-~------1-----------------------------------|
E|----1-~------------------------------------------|



************************************

| x  Dead note
| ~  Vibrato
| s  Slide

************************************

https://tabs.ultimate-guitar.com/a/arctic_monkeys/mad_sounds_tab.htm