Tablature guitare : Arctic Monkeys – Crying Lightning

-------------------------------------------------------------------------------
                         Crying Lightning - Arctic Monkeys
-------------------------------------------------------------------------------
Tabbed by:Lee Horsfield
Email:ozi.76@hotmail.co.uk

Tuning:Standard


[Alex (Fig 1)]

e|---------------------------------------------------------------------------|
B|---------------------------------------------------------------------------|
G|---------------------------------------------------------------------------|
D|-------------0-3-------------3-2-------------0-5-3-2-0---0-2-3-------------|
A|-------0-2-3-----------0-2-3-----------0-2-3-----------3---------0-2-3-(0)-|
E|-0-1-4-----------0-1-4-----------0-1-4-------------------------4-----------|


[Jamie]                 LET RING

e|-5--------7-----5------------8--------5--------7-5------------8------------|
B|-5------------5------------8---8-9----5----------5----------8---8-9/17-----|
G|-5----------5------------9------------5----------5--------9----------------|
D|---------------------------------------------------------------------------|
A|---------------------------------------------------------------------------|
E|---------------------------------------------------------------------------|


[Alex (Fig 2)]

e|--------------------------------------------------|
B|--------------------------------------------------|
G|--------------------------------------------------|
D|-----------------X8------------------X3-----------|
A|-----------7-6--------7---6-------6-------7---6---|
E|-5-5-5-5-8-----4----8---4---5-8-7-------8---4---5-|

Then go straight into Fig 1 Which is repeated 4 times apart from the first 3 notes (-0-1-4-)
which are only played the first time. Hope that's not too confusing.


[Strumming Part (Fig 3)]

e|-0----1----0---------------------------------------------------------------|
B|-1----3----1---------------------------------------------------------------|
G|-2----2----2---------------------------------------------------------------|
D|-3----0----2---------------------------------------------------------------|
A|-3---------0---------------------------------------------------------------|
E|-1-------------------------------------------------------------------------|
   F    Dm   Am


Then Fig 2 but with the first part played only six times.

Interlude then back to the chords (Fig 3) played four times but finishing on Dm.

I haven't work out the rest of Jamie's parts or the solo yet but i hope this helps.
This is my first tab so sorry if it's a bit messy.

I have posted a video on YouTube of me playing this which might help with this tab.
You can watch it here - http://www.youtube.com/watch?v=nuvr4p1_bVE


************************************

| (n)  Ghost note
| /    Slide up

************************************

https://tabs.ultimate-guitar.com/a/arctic_monkeys/crying_lightning_ver3_tab.htm