Tablature guitare : AC/DC – TNT

 ACDC TNT tab

[Intro]

                                 
e|----------|-----------------------------|
B|----------|o---------------------------o|
G|----------|------0--2--------2----------|
D|--2~------|---2--0--2--------2----------|
A|--2~------|o--2--x--0--------0---------o|
E|--0~------|---0--3-----3--3-----3qb-----|(x5)
                       .

[Verse]
                        
e|-----------------------------|
B|o---------------------------o|
G|------0--2--------2----------|
D|---2--0--2--------2----------|
A|o--2--x--0--------0---------o|
E|---0--3-----3--3-----3qb-----|(x7)
             .
|-----------------------------|
|-----------------------------|
|------0--2~------------------|
|---2--0--2~------------------|
|---2--x--0~------------------|
|---0--3----------------------|


 CHROUS 
                            
e|-----------------------------|
B|o---------------------------o|
G|---2-------------------------|
D|---2-------2-----------------|
A|o--0-------2----------------o|
E|------3qb--0-----------------|(x3)

e|-----------------------------|
B|-----------------------------|
G|---2-----------0---2~--------|
D|---2-------2---0---2~--------|
A|---0-------2---x---0~--------|
E|------3qb--0---3-------------|
|                             |
e|-----------------------------|
B|-----------------------------|
G|------------------------2fb~-|
D|-----------------------------|
A|-----------------------------|
E|-----------------------------|


[Verse]
                       x9
e|-----------------------------|
B|o---------------------------o|
G|------0--2--------2----------|
D|---2--0--2--------2----------|
A|o--2--x--0--------0---------o|
E|---0--3-----3--3-----3qb-----|
             .
e|-----------------------------|
B|-----------------------------|
G|------0--2~------------------|
D|---2--0--2~------------------|
A|---2--x--0~------------------|
E|---0--3----------------------|


[Chorus]
                      
e|-----------------------------|
B|o---------------------------o|
G|---2-------------------------|
D|---2-------2-----------------|
A|o--0-------2----------------o|
E|------3qb--0-----------------|(x3)

e|-----------------------------|
B|-----------------------------|
G|---2-----------0---2~--------|
D|---2-------2---0---2~--------|
A|---0-------2---x---0~--------|
E|------3qb--0---3-------------|
|                             |
e|-----------------------------|
B|-----------------------------|
G|------------------------2fb~-|
D|-----------------------------|
A|-----------------------------|
E|-----------------------------|


[Solo]

e|-----3-2-0--------------------------|
B|-----------3-2-0--------------------|
G|-4~------------2-2p0-----0----------|
D|---------------------3p0------------|
A|------------------------------------|
E|---------------------------19\0-----|

e|----------12------------------------|
B|-15b17~------15-12----12------------|
G|-------------------14----14-14p12---|
D|---------------------------------14-|
A|------------------------------------|
E|------------------------------------|

e|---------------12-------------12----|
B|------------12-----15p12---------12-|
G|-12-----14b--------------14h16------|
D|-----14-----------------------------|
A|------------------------------------|
E|------------------------------------|

e|--------------------------17b19r17--|
B|--17--------------------------------|
G|------------------------------------|
D|------14-12-14~-14\-----------------|
A|------------------------------------|
E|-----------------------0------------|


[Chorus]
                  
e|-----------------------------|
B|o---------------------------o|
G|---2-------------------------|
D|---2-------2-----------------|
A|o--0-------2----------------o|
E|------3qb--0-----------------|(x7)

e|-----------------------------|
B|-----------------------------|
G|---2-----------0---2~--------|
D|---2-------2---0---2~--------|
A|---0-------2---x---0~--------|
E|------3qb--0---3-------------|


[Outro]

e|-------------|--------------|-----------|
B|-------------|--------------|-----------|
G|-------------|--------------|-----------|
D|-2-----------|-3------------|-4---------|
A|-2-----------|-3------------|-4---------|
E|-0-----------|-1------------|-2---------|
|                                        |
e|-------------|--------------|-----------|
B|----5--------|---6----------|---7-------|
G|----7b9------|---8b10-------|---9b11----|
D|-------------|--------------|-----------|
A|-------------|--------------|-----------|
E|-------------|--------------|-----------|

e|---------------|---------------------|-----------------------|
B|---------------|---------------------|-----------------------|
G|---------------|---------------------|-----------------------|
D|-5-------------|-6---------7---------|-8---------9-----------|
A|-5-------------|-6---------7---------|-8---------9-----------|
E|-3-------------|-4---------5---------|-6---------7-----------|
|                                                             |
e|---------------|---------------------|-----------------------|
B|-------8-------|---------------------|-----------------------|
G|------10b12----|----11b13-----12b14--|----13b15-----14b16----|
D|---------------|---------------------|-----------------------|
A|---------------|---------------------|-----------------------|
E|---------------|---------------------|-----------------------|

e|------------------------------------------|
B|------------------------------------------|
G|------------------------------------------|
D|-10-------11---------12---------13--------|
A|-10-------11---------12---------13--------|
E|--8--------9---------10---------11--------|
|                                          |
e|------------------------------------------|
B|----13-------14-----------15-------16-----|
G|----15b17----16b18--------17b19----18b20--|
D|------------------------------------------|
A|------------------------------------------|
E|------------------------------------------|

e|-------------------------------------|
B|-------------------------------------|
G|-------------------------------------|
D|--14---------15-------16-------17----|
A|--14---------15-------16-------17----|
E|--12---------13-------14-------15----|
|                                     |
e|-------------------------------------|
B|-------17-------18-------18----------|
G|-------19b21----20b22----20b22-------|
D|-------------------------------------|
A|-------------------------------------|
E|-------------------------------------|

e|-------------------------------------|
B|-------------------------------------|
G|-------------------------------------|
D|-18-------19--20--21--------21-------|
A|-18-------19--20--21--------21-------|
E|-16-------17--18--19--------19-------|
|                                     |
e|-------------------------------------|
B|--------------20--22b23---22b24------|
G|----22b23----------------------------|
D|-------------------------------------|
A|-------------------------------------|
E|-------------------------------------|


e|-------------------------------------|
B|-------------------------------------|
G|-------------------------------------|
D|--2~---------------------------------|
A|--2~---------------------------------|
E|--0~---------------------------------|

************************************

| x   Dead note
| h   Hammer-on
| p   Pull-off
| r   Release
| b   Bend
| \   Slide down
| ~   Hold Note  
| .   Palm Mute particular note(s)  
| fb~ Full Bend
| o   Repeat as many times as noted 
| HB  Half Bend
| QB  Quarter Bend

************************************

Source : https://tabs.ultimate-guitar.com/a/acdc/tnt_ver3_tab.htm