Tablature guitare : ZZ Top – Cheap Sunglasses

Cheap Sunglasses by ZZ Top 

this is really a pretty simple song, especially the verses. Send any
questions, requests, comments to : hermans@scf.usc.edu


    rhythm guitar                                                              
|E-|---------------------|
|B-|---------------------|
|G-|---------------------|
|D-|-----------------3-5-|
|A-|-5-5---5---5-5-5-1-3-|
|E-|-3-3-3---1-3-3-3-----|
|                         Repeat this measure over and over until              
|    lead guitar          the lyrics come to the "OH Yeah"s                    
|E-|---------------------|
|B-|---5/6---------------|
|G-|---6/7---------------|
|D-|---7/8---------------|
|A-|---------------------|
|E-|---------------------|
                         
                                                      
    During the "Oh Yeah"s play this a few times                                
E-|-------------------|
B-|-------------------|
G-|-------------------|
D-|-----------3-5-3---|
A-|-5-5-5-5-5-1-3-1---|
E-|-3-3-1-3-3-------1-|

                                                                               
    Then after the bass guitar leads you into the part before the solo:        
E-|-8-----8---7-|--------------|-8------8--7-|-------------|
B-|-10----10--9-|--------------|-10-----10-9-|-------------|
G-|-10----10--9-|---12b--------|-10-----10-9-|---0--12b----|
D-|-------------|--------------|-------------|-------------|
A-|-------------|--------------|-------------|-------------|
E-|-------------|--------------|-------------|-------------|
                                                        repeat again           
                                                            

[Solo]                   
E-|-----------------------------|----------------------------------|
B-|-----------------------------|----------------------------------|
G-|----------------------8------|----------------------------------|
D-|-----8-10--10----8-10---10-8-|-8h10-10----8-10-8h10--8----------|
A-|--10-------------------------|---------10--------------10-9-8\6-|
E-|-----------------------------|----------------------------------|
                                                                               
                                                                               
E-|-------------------------|------------------------------|
B-|-------------------------|------------------------------|
G-|--------------------8\7--|--------------10--------------|
D-|----8-10--10--10-8-------|------------8-10-8------------|
A-|-10----------------------|------8/10---------10-9-8\6---|
E-|-------------------------|------------------------------|
                                                                               
                                                                               
E-|----------------------|------------------------|---------------------------|
B-|----------------------|--------9---------------|---------------------------|
G-|------------------6b--|---8b10---6---------6---|--------------------8------|
D-|------6-8---8---------|-------------8-6--8---8/|10-----8-10-10-10-8--------|
A-|----8-----------------|------------------------|----10---------------------|
E-|----------------------|------------------------|---------------------------|
                                                                               
                                                                               
E-|-----------------|---------------------------|
B-|-----------------|---------------------------|
G-|-----------------|---------------------------|
D-|-----------------|---------------------------|
A-|----3-5----3-5---|(5)h3-----3-5---3---3h5----|

                                                                               
E-|-8-----8---7-|--------------|-8------8--7-|-------------|
B-|-10----10--9-|--------------|-10-----10-9-|-------------|
G-|-10----10--9-|---12b--------|-10-----10-9-|---0--12b----|
D-|-------------|--------------|-------------|-------------|
A-|-------------|--------------|-------------|-------------|
E-|-------------|--------------|-------------|-------------|
                                       repeat this again                       

more solo:
E-|-------------------------|-------------------------|
B-|-------------------------|-------------------------|
G-|-------------------------|-------------------------|
D-|-------------------------|-------------------------|
A-|---8b10--8--6-----8/10---|-8---8\6-8---8---8/10----|
E-|--------------8-6--------|-------------------------|
                                                                               
                                                                               
E-|---------------------------------|---------------------|
B-|---------------------------------|---------------------|
G-|---------------------------------|---------------------|
D-|-8----10p8------8--8-------------|---------------------|
A-|---10------10-------10\8--6---8b-|--8--6-8---8b9b8\7---|
E-|----------------------------8----|---------8-----------|
                                                                               
                                                                               
E-|--------------------|-----------------------------|------------------------|
B-|--------------------|-----------------------------|------------------------|
G-|--------------------|---------------------------8-|------------------------|
D-|------------6-8b9b8p|6h8-------6-8--8b9b8/10-10---|------8--10-------------|
A-|--------6-8---------|------6h8--------------------|-8h10-----------8h10----|
E-|------8-------------|-----------------------------|------------------------|
                                                                               
                                                                               
E-|----------------------|-----------------------------|
B-|-5--5---5----3----3---|--5--5-3--5-5---5-3---x------|
G-|-5--5-3-5----3--5-----|--5--5-3--5-5---5-3-x-x------|
D-|----------------------|--------------------x-x------|
A-|----------------------|-----------------------------|
E-|----------------------|-------------------------10\-|
    these two measure actually call for some weird bending you might want 
        to      experiment with.     
                                                                               
You are now back to the beginning themes. Play them for the 3rd verse and
then the final solo comes in with LOTS of muted stuff.

More ZZ Top tabs to come... (any preferences?, anybody?)



************************************

| x  Dead note
| h  Hammer-on
| p  Pull-off
| b  Bend
| /  Slide up
| \  Slide down

************************************

https://tabs.ultimate-guitar.com/z/zz_top/cheap_sunglasses_tab.htm