Tablature guitare : The Smiths – Still Ill

Still Ill (The Smiths):


CAPO 2nd FRET:

 Intro:
e|-------x-x-x-x-x-x-|
B|-------x-x-x-x-x-x-|
G|-------x-x-x-x-x-x-|
D|-------x-x-x-x-x-x-|
A|-------x-x-x-x-x-x-|
E|-------x-x-x-x-x-x-|

(Numbers according to the capo on 2nd fret, so a "3" is a natural "5" without capo):

e|--------|   Johnny plays this mini-riff on the album Rank, before...
B|----3-5-|
G|-4------|
D|--------|
A|--------|
E|--------|

...this! (main riff):

e|------5---------------------------------7------9------|
B|----3------3-3---5-3------5---5-----------------------|
G|-/4----4-------4------4/6---6---6----7----7/9---------|
D|------------------------------------------------------|
A|------------------------------------------------------|
E|------------------------------------------------------|

e|------5---------------------------------7-----0-------|
B|----3------3-3---5-3------5---5-----------------2-----|
G|-/4----4-------4------4/6---6---6----7------2---------|
D|------------------------------------------------------|
A|------------------------------------------------------|
E|------------------------------------------------------|

[Bridge]
e|------------------------------------------------------------------------|   
B|--------------------2--------------3--2---------------------------------|
G|----------------------2------------2--2--2---------2-2-------------2-2--|
D|-----------------2--------0/2-0--------------0-0-2---------0-2-4--------|
A|------------------------------------------------------------------------|
E|--(5)-(3)-(2)-----------------------------------------------------------|

[Chorus]
e|--22--3--2----3----3----3-----5---5---5-----5---5------|
B|--33--3--3-----3----3----------5---5---------5---5-----|
G|--22--2--2------4----4----------6---6---------6---6----|
D|-------------------------------------------------------|
A|-------------------------------------------------------|
E|-------------------------------------------------------|

e|------------------------------------------------------------------------|   
B|--------------------2--------------3--2---------------------------------|
G|----------------------2------------2--2--2---------2-2-------------2-2--|
D|-----------------2--------0/2-0--------------0-0-2---------0-2-4--------|
A|------------------------------------------------------------------------|
E|--(5)-(3)-(2)-----------------------------------------------------------|

And again with the main riff 🙂

It'm my first tablature, it' s one of my favoutite songs and i tried to make it right 🙂 
sorry fot bad english, i'm italian 🙂



************************************

| x    Dead note
| (n)  Ghost note
| /    Slide up 

************************************

https://tabs.ultimate-guitar.com/t/the_smiths/still_ill_ver4_tab.htm