Tablature guitare : The Script – The Man Who Cant Be Moved

this is a brilliant song by a brilliant new band calledthe script 
well worth buying their album {only 10 euro!!!!}
this is my first tab so be as harsh as you want about it... i need to learn!!


 [Intro/Verse]
 
e|------------------------------------------------------------------|
B|------------------------------------------------------------------|
G|------------------------------------5--5-7-5--------5--5-7-5------|
D|---8--8------------8--8-----------8--8-------8----8--8-------8----|
A|--5--5---5--------5--5--5--------6--------------6-----------------|
E|-6--6---6--------5--5--5------------------------------------------|

Going back to the corner where I first saw you, 
Gonna camp in my sleeping bag. I'm not gonna move, 
Got some words on cardboard got your picture in my hand, 
Saying if you see this girl can you tell her where I am, 
Some try to hand me money they don't understand, 
I'm not... broke I'm just a broken hearted man, 
I know it makes no sense, but what else can I do, 
How can I move on when I've been in love with you... 
 
 
[Chorus]
  
    A#     F  or  F {8th fret}   Cm
e|--1------1------x--------------3---------------------------------|
B|--3------1------10-------------4---------------------------------|
G|--3------2------10-------------5---------------------------------|
D|--3------3------10-------------5---------------------------------|
A|--1------3------8--------------3---------------------------------|
E|--x------1------x--------------x---------------------------------|

Cos if one day you wake up and find that you're missing me, 
And your heart starts to wonder where on this earth I can be, 
Thinking maybe you'd come back here to the place that we'd meet, 
And you'd see me waiting for you on the corner of the street.

So I'm not moving... 
I'm not moving.


[Bridge]

(Intro again)

e|------------------------------------------------------------------|
B|------------------------------------------------------------------|
G|------------------------------------5--5-7-5--------5--5-7-5------|
D|---8--8------------8--8-----------8--8-------8----8--8-------8----|
A|--5--5---5--------5--5--5--------6--------------6-----------------|
E|-6--6---6--------5--5--5------------------------------------------|

Policeman says son you can't stay here, 
I said there's someone I'm waiting for if it's a day, a month, a year,
Gotta stand my ground even if it rains or snows, 
If she changes her mind this is the first place she will go.


[Chorus]

    A#     F  or  F {8th fret}   Cm
e|--1------1------x--------------3---------------------------------|
B|--3------1------10-------------4---------------------------------|
G|--3------2------10-------------5---------------------------------|
D|--3------3------10-------------5---------------------------------|
A|--1------3------8--------------3---------------------------------|
E|--x------1------x--------------x---------------------------------|


Cos if one day you wake up and find that you're missing me, 
And your heart starts to wonder where on this earth I can be, 
Thinking maybe you'd come back here to the place that we'd meet, 
And you'd see me waiting for you on the corner of the street.

So I'm not moving... 
I'm not moving.

I'm not moving... 
I'm not moving.

e|-----------------|-----------------|------------------------|
B|------3----------|-----6-----------|------------------------|
G|------------5----|-----------8-----|------10------8---------|
D|----5-----5-----5|----8-----8-----8|---10------10-----10----|
A|-----------------|-6-----6-----6---|-8-------8------8-------|
E|--3-----3-----3--|-----------------|------------------------|

e|------------------------|
B|------------------------|
G|------------------------|
D|------8------10---------|
A|---10-----10------10----|
E|-8------8-------8-------|

People talk about the guy
Whos waiting on a girl... 
Oohoohwoo
There are no holes in his shoes
But a big hole in his world... 
Hmmmm

e|--------------------------------------------|                 
B|--------------------------------------------|
G|------7----7----------------10------10------|
D|----8----8-----8---------10------10------10-|     x 4
A|--6----6-----6---------8-------8-------8----|
E|--------------------------------------------|

Maybe I'll get famous as man who can't be moved, 
And maybe you won't mean to but you'll see me on the news, 
And you'll come running to the corner... 
Cos you'll know it's just for you


(this part before the last chorus)

e|--------------------------------------------|                 
B|-----3-----3-----------4-----4--------------|
G|---------------3-----------------3----------|
D|---5-----5-----------5-----5----------------|
A|-3-----3-----3-----3-----3-----3------------|
E|--------------------------------------------|


[Chorus]

    A#     F  or  F {8th fret}   Cm
e|--1------1------x--------------3---------------------------------|
B|--3------1------10-------------4---------------------------------|
G|--3------2------10-------------5---------------------------------|
D|--3------3------10-------------5---------------------------------|
A|--1------3------8--------------3---------------------------------|
E|--x------1------x--------------x---------------------------------|

I'm the man who can't be moved
I'm the man who can't be moved... 

Cos if one day you wake up and find that you're missing me, 
And your heart starts to wonder where on this earth I can be, 
Thinking maybe you'd come back here to the place that we'd meet, 
And you'd see me waiting for you on the corner of the street.
[Repeat in background]

So I'm not moving... 
I'm not moving.

I'm not moving... 
I'm not moving.

Going back to the corner where I first saw you, 
Gonna camp in my sleeping bag not I'm not gonna move.


************************
|x          Dead note
************************

https://tabs.ultimate-guitar.com/t/the_script/the_man_who_cant_be_moved_ver3_tab.htm