Tablature guitare : The Kinks – You Really Got Me

[Intro]

 F5 G5 F5 G5
e|------------|
B|------------|
G|------------|
D|-3--5-5-3-5-|
A|-3--5-5-3-5-|
E|-1--3-3-1-3-|


[Verse]

 F5 G5 F5 G5
e|------------|
B|------------|
G|------------|
D|-3--5-5-3-5-|
A|-3--5-5-3-5-|
E|-1--3-3-1-3-|
(1)girl you really got me going          you got me so i dont know what im doing
(2,3)see dont ever set me free           i always wanna be your side

yeah you really got knowing              you got me so i cant sleep at night
yeah you really got knowing              you got me so i cant sleep at night

 G5 A5 G5 A5
e|------------|
B|------------|
G|------------|
D|-5--7-7-5-7-|
A|-5--7-7-5-7-|
E|-3--5-5-3-5-|
yeah you really got me now  you got me so I dont know what im doing now

 C5  D5    C5 D5
e|-----------------|
B|-----------------|
G|-----------------|
D|-10--12-12-10-12-|
A|-10--12-12-10-12-|
E|-8---10-10-8--10-|
oh yeah you really got me now you got me so I cant sleep at night


[Chorus]
                                                         C5
you really got me you really got me you really got me


[Solo]

e|-------------------------------------------------------------------------------------------|
B|-------------------3-----------------------------------------------------------------------|
G|-5b-5b-5b-5b-5b-5b---5b6-6r5p3p0--3-0-3-0-3-0-3-0-3-0-3-5b6-6r5p3p0--3-0-3-0-3-5b6-6r5p3p0-|
D|-------------------------------------------------------------------------------------------|
A|-------------------------------------------------------------------------------------------|
E|-------------------------------------------------------------------------------------------|


e|-6p3------------------------------------------6p3---------------------------------------------------------|
B|-----3--------------------------------------------3-------------------------------------------------------|
G|-------5b6-6r5p3p0--3-0-3-0-3-5b6-5b6-6r5p3p0-------5b6-6r5p3p0--3-0-3-0-3--5b6-5b6-5b6-5b6-5b6--5b6--5b6-|
D|----------------------------------------------------------------------------------------------------------|
A|----------------------------------------------------------------------------------------------------------|
E|----------------------------------------------------------------------------------------------------------|


[Outro]

D     D7


************************************

| p  Pull-off
| r  Release
| b  Bend

************************************

https://tabs.ultimate-guitar.com/t/the_kinks/you_really_got_me_tab.htm