Tablature guitare : The Kinks – All Day And All Of The Night

[Intro]

(Main Riff)
e|-------------------------|
B|-------------------------|
G|---------------3-3-(3)---|
D|-3-5---5-3---3-3-3-(3)-5-|
A|-3-5---5-3---3-1-1-(1)-5-|
E|-1-3---3-1---1---------3-|


[Verse]

(Main Riff)
e|-------------------------|
B|-------------------------|
G|---------------3-3-(3)---|
D|-3-5---5-3---3-3-3-(3)-5-|
A|-3-5---5-3---3-1-1-(1)-5-|
E|-1-3---3-1---1---------3-|


[Verse]

e|-----------------------|
B|-----------------------|
G|-3--3-3-(3)------------|
D|-3--3-3-(3)-3--3-3-(3)-|
A|-1--1-1-(1)-3--3-3-(3)-|
E|------------1--1-1-(1)-|


[Verse]

e|-------------------------|
B|-------------------------|
G|---------------5-5-(5)---|
D|-5-7---7-5---5-5-5-(5)-7-|
A|-5-7---7-5---5-3-3-(3)-7-|
E|-3-5---5-3---3---------5-|


[Chorus]

The Main Riff in the Chorus is played a little different. If you listen to the song you
understand this part more.
e|------------------------------------------------|
B|------------------------------------------------|
G|----------------------------------10-10-(10-----|
D|-10-12---12-12--12-10---10-10--10-10-10-(10)-12-|
A|-10-12---12-12--12-10---10-10--10-8--8--(8)--12-|
E|-8--10---10-10--10-8----8--8---8-------------10-|
      |_____________||____________|
***These notes are really close together, so don't think that the tab is wrong!***


[Bridge]

Hold these chords.
e|----------|----------|
B|----------|----------|
G|-10-------|-10\-7----|
D|-10-------|-10\-7----|
A|-8--------|-8\--5----|
E|----------|----------|


[Outro]

e|----------------|
B|----------------|
G|---------5------|
D|-7---5---5--7---|
A|-7---5---3--7---|
E|-5---3------5---|

Order:
Intro     x2 (0:00 - 0:07)
Verse A   x4 (0:07 - 0:21)
Verse B   x1 (0:21 - 0:25)
Verse C   x1 (0:25 - 0:29)
Chorus    x4 (0:29 - 0:43)
Verse A   x4 (0:43 - 0:57)
Verse B   x1 (0:57 - 1:00)
Verse C   x1 (1:00 - 1:04)
Chorus    x4 (1:04 - 1:16)
Bridge    x1 (1:16 - 1:21)
Solo      x1 (1:21 - 1:37)
Verse A   x4 (1:37 - 1:54)
Verse B   x1 (1:54 - 1:58)
Verse C   x1 (1:58 - 2:02)
Chorus    x4 (2:02 - 2:16)
Outro     x1 (2:16 - 2:20)



************************************

| (n)  Ghost note
| \    Slide down

************************************


Lyrics:
Im not content to be with you in the daytime
Girl I want to be with you all of the time
The only time I feel alright is by your side
Girl I want to be with you all of the time
All day and all of the night
All day and all of the night
All day and all of the night

I believe that you and me last forever
Oh yea, all day and nighttime yours, leave me never
The only time I feel alright is by your side
Girl I want to be with you all of the time
All day and all of the night
All day and all of the night
Oh, come on...

I believe that you and me last forever
Oh yea, all day and nighttime yours, leave me never
The only time I feel alright is by your side
Girl I want to be with you all of the time
All day and all of the night
All day and all of the night time

https://tabs.ultimate-guitar.com/t/the_kinks/all_day_and_all_of_the_night_ver4_tab.htm